999
"DXF R12 Output" (www.mydxf.blogspot.com)
 0 
SECTION
 2 
HEADER
 9 
$ACADVER
 1 
AC1009
 9 
$EXTMIN
 10 
 0 
 20 
 0 
 9 
$EXTMAX
 10 
 8.5 
 20 
 11 
 0 
ENDSEC
 0 
SECTION
 2 
ENTITIES
0
LINE
8
front_outsideCutPath
10
0.000000
20
148.000084
11
0.000000
21
129.500176
0
LINE
8
front_outsideCutPath
10
0.000000
20
129.500176
11
3.000001
21
129.500176
0
LINE
8
front_outsideCutPath
10
3.000001
20
129.500176
11
3.000001
21
117.500278
0
LINE
8
front_outsideCutPath
10
3.000001
20
117.500278
11
0.000000
21
117.500278
0
LINE
8
front_outsideCutPath
10
0.000000
20
117.500278
11
0.000000
21
105.500116
0
LINE
8
front_outsideCutPath
10
0.000000
20
105.500116
11
3.000001
21
105.500116
0
LINE
8
front_outsideCutPath
10
3.000001
20
105.500116
11
3.000001
21
93.500219
0
LINE
8
front_outsideCutPath
10
3.000001
20
93.500219
11
0.000000
21
93.500219
0
LINE
8
front_outsideCutPath
10
0.000000
20
93.500219
11
0.000000
21
81.500321
0
LINE
8
front_outsideCutPath
10
0.000000
20
81.500321
11
3.000001
21
81.500321
0
LINE
8
front_outsideCutPath
10
3.000001
20
81.500321
11
3.000001
21
69.500160
0
LINE
8
front_outsideCutPath
10
3.000001
20
69.500160
11
0.000000
21
69.500160
0
LINE
8
front_outsideCutPath
10
0.000000
20
69.500160
11
0.000000
21
57.500262
0
LINE
8
front_outsideCutPath
10
0.000000
20
57.500262
11
3.000001
21
57.500262
0
LINE
8
front_outsideCutPath
10
3.000001
20
57.500262
11
3.000001
21
45.500365
0
LINE
8
front_outsideCutPath
10
3.000001
20
45.500365
11
0.000000
21
45.500365
0
LINE
8
front_outsideCutPath
10
0.000000
20
45.500365
11
0.000000
21
33.500203
0
LINE
8
front_outsideCutPath
10
0.000000
20
33.500203
11
3.000001
21
33.500203
0
LINE
8
front_outsideCutPath
10
3.000001
20
33.500203
11
3.000001
21
21.500305
0
LINE
8
front_outsideCutPath
10
3.000001
20
21.500305
11
0.000000
21
21.500305
0
LINE
8
front_outsideCutPath
10
0.000000
20
21.500305
11
0.000000
21
9.501466
0
LINE
8
front_outsideCutPath
10
0.000000
20
9.501466
11
0.000000
21
3.000662
0
LINE
8
front_outsideCutPath
10
0.000000
20
3.000662
11
20.499970
21
3.000662
0
LINE
8
front_outsideCutPath
10
20.499970
20
3.000662
11
20.499970
21
6.001033
0
LINE
8
front_outsideCutPath
10
20.499970
20
6.001033
11
32.500053
21
6.001033
0
LINE
8
front_outsideCutPath
10
32.500053
20
6.001033
11
32.500053
21
3.000662
0
LINE
8
front_outsideCutPath
10
32.500053
20
3.000662
11
44.499950
21
3.000662
0
LINE
8
front_outsideCutPath
10
44.499950
20
3.000662
11
44.499950
21
6.001033
0
LINE
8
front_outsideCutPath
10
44.499950
20
6.001033
11
56.499848
21
6.001033
0
LINE
8
front_outsideCutPath
10
56.499848
20
6.001033
11
56.499848
21
3.000662
0
LINE
8
front_outsideCutPath
10
56.499848
20
3.000662
11
68.500010
21
3.000662
0
LINE
8
front_outsideCutPath
10
68.500010
20
3.000662
11
68.500010
21
6.001033
0
LINE
8
front_outsideCutPath
10
68.500010
20
6.001033
11
80.499907
21
6.001033
0
LINE
8
front_outsideCutPath
10
80.499907
20
6.001033
11
80.499907
21
3.000662
0
LINE
8
front_outsideCutPath
10
80.499907
20
3.000662
11
92.499804
21
3.000662
0
LINE
8
front_outsideCutPath
10
92.499804
20
3.000662
11
92.499804
21
6.001033
0
LINE
8
front_outsideCutPath
10
92.499804
20
6.001033
11
104.499966
21
6.001033
0
LINE
8
front_outsideCutPath
10
104.499966
20
6.001033
11
104.499966
21
3.000662
0
LINE
8
front_outsideCutPath
10
104.499966
20
3.000662
11
116.499864
21
3.000662
0
LINE
8
front_outsideCutPath
10
116.499864
20
3.000662
11
116.499864
21
6.001033
0
LINE
8
front_outsideCutPath
10
116.499864
20
6.001033
11
128.499761
21
6.001033
0
LINE
8
front_outsideCutPath
10
128.499761
20
6.001033
11
128.499761
21
3.000662
0
LINE
8
front_outsideCutPath
10
128.499761
20
3.000662
11
140.499923
21
3.000662
0
LINE
8
front_outsideCutPath
10
140.499923
20
3.000662
11
140.499923
21
6.001033
0
LINE
8
front_outsideCutPath
10
140.499923
20
6.001033
11
152.499820
21
6.001033
0
LINE
8
front_outsideCutPath
10
152.499820
20
6.001033
11
152.499820
21
3.000662
0
LINE
8
front_outsideCutPath
10
152.499820
20
3.000662
11
164.499718
21
3.000662
0
LINE
8
front_outsideCutPath
10
164.499718
20
3.000662
11
164.499718
21
6.001033
0
LINE
8
front_outsideCutPath
10
164.499718
20
6.001033
11
176.499880
21
6.001033
0
LINE
8
front_outsideCutPath
10
176.499880
20
6.001033
11
176.499880
21
3.000662
0
LINE
8
front_outsideCutPath
10
176.499880
20
3.000662
11
188.499777
21
3.000662
0
LINE
8
front_outsideCutPath
10
188.499777
20
3.000662
11
188.499777
21
6.001033
0
LINE
8
front_outsideCutPath
10
188.499777
20
6.001033
11
200.499674
21
6.001033
0
LINE
8
front_outsideCutPath
10
200.499674
20
6.001033
11
200.499674
21
3.000662
0
LINE
8
front_outsideCutPath
10
200.499674
20
3.000662
11
212.499836
21
3.000662
0
LINE
8
front_outsideCutPath
10
212.499836
20
3.000662
11
212.499836
21
6.001033
0
LINE
8
front_outsideCutPath
10
212.499836
20
6.001033
11
224.499734
21
6.001033
0
LINE
8
front_outsideCutPath
10
224.499734
20
6.001033
11
224.499734
21
3.000662
0
LINE
8
front_outsideCutPath
10
224.499734
20
3.000662
11
236.499631
21
3.000662
0
LINE
8
front_outsideCutPath
10
236.499631
20
3.000662
11
236.499631
21
6.001033
0
LINE
8
front_outsideCutPath
10
236.499631
20
6.001033
11
248.499793
21
6.001033
0
LINE
8
front_outsideCutPath
10
248.499793
20
6.001033
11
248.499793
21
3.000662
0
LINE
8
front_outsideCutPath
10
248.499793
20
3.000662
11
260.499691
21
3.000662
0
LINE
8
front_outsideCutPath
10
260.499691
20
3.000662
11
260.499691
21
6.001033
0
LINE
8
front_outsideCutPath
10
260.499691
20
6.001033
11
272.499323
21
6.001033
0
LINE
8
front_outsideCutPath
10
272.499323
20
6.001033
11
272.499323
21
3.000662
0
LINE
8
front_outsideCutPath
10
272.499323
20
3.000662
11
284.500808
21
3.000662
0
LINE
8
front_outsideCutPath
10
284.500808
20
3.000662
11
292.999214
21
3.000662
0
LINE
8
front_outsideCutPath
10
292.999214
20
3.000662
11
292.999214
21
21.500305
0
LINE
8
front_outsideCutPath
10
292.999214
20
21.500305
11
289.998843
21
21.500305
0
LINE
8
front_outsideCutPath
10
289.998843
20
21.500305
11
289.998843
21
33.500203
0
LINE
8
front_outsideCutPath
10
289.998843
20
33.500203
11
292.999214
21
33.500203
0
LINE
8
front_outsideCutPath
10
292.999214
20
33.500203
11
292.999214
21
45.500365
0
LINE
8
front_outsideCutPath
10
292.999214
20
45.500365
11
289.998843
21
45.500365
0
LINE
8
front_outsideCutPath
10
289.998843
20
45.500365
11
289.998843
21
57.500262
0
LINE
8
front_outsideCutPath
10
289.998843
20
57.500262
11
292.999214
21
57.500262
0
LINE
8
front_outsideCutPath
10
292.999214
20
57.500262
11
292.999214
21
69.500160
0
LINE
8
front_outsideCutPath
10
292.999214
20
69.500160
11
289.998843
21
69.500160
0
LINE
8
front_outsideCutPath
10
289.998843
20
69.500160
11
289.998843
21
81.500321
0
LINE
8
front_outsideCutPath
10
289.998843
20
81.500321
11
292.999214
21
81.500321
0
LINE
8
front_outsideCutPath
10
292.999214
20
81.500321
11
292.999214
21
93.500219
0
LINE
8
front_outsideCutPath
10
292.999214
20
93.500219
11
289.998843
21
93.500219
0
LINE
8
front_outsideCutPath
10
289.998843
20
93.500219
11
289.998843
21
105.500116
0
LINE
8
front_outsideCutPath
10
289.998843
20
105.500116
11
292.999214
21
105.500116
0
LINE
8
front_outsideCutPath
10
292.999214
20
105.500116
11
292.999214
21
117.500278
0
LINE
8
front_outsideCutPath
10
292.999214
20
117.500278
11
289.998843
21
117.500278
0
LINE
8
front_outsideCutPath
10
289.998843
20
117.500278
11
289.998843
21
129.500176
0
LINE
8
front_outsideCutPath
10
289.998843
20
129.500176
11
292.999214
21
129.500176
0
LINE
8
front_outsideCutPath
10
292.999214
20
129.500176
11
292.999214
21
141.500073
0
LINE
8
front_outsideCutPath
10
292.999214
20
141.500073
11
292.999214
21
148.000084
0
LINE
8
front_outsideCutPath
10
292.999214
20
148.000084
11
272.499323
21
148.000084
0
LINE
8
front_outsideCutPath
10
272.499323
20
148.000084
11
272.499323
21
145.000241
0
LINE
8
front_outsideCutPath
10
272.499323
20
145.000241
11
260.499691
21
145.000241
0
LINE
8
front_outsideCutPath
10
260.499691
20
145.000241
11
260.499691
21
148.000084
0
LINE
8
front_outsideCutPath
10
260.499691
20
148.000084
11
248.499793
21
148.000084
0
LINE
8
front_outsideCutPath
10
248.499793
20
148.000084
11
248.499793
21
145.000241
0
LINE
8
front_outsideCutPath
10
248.499793
20
145.000241
11
236.499631
21
145.000241
0
LINE
8
front_outsideCutPath
10
236.499631
20
145.000241
11
236.499631
21
148.000084
0
LINE
8
front_outsideCutPath
10
236.499631
20
148.000084
11
224.499734
21
148.000084
0
LINE
8
front_outsideCutPath
10
224.499734
20
148.000084
11
224.499734
21
145.000241
0
LINE
8
front_outsideCutPath
10
224.499734
20
145.000241
11
212.499836
21
145.000241
0
LINE
8
front_outsideCutPath
10
212.499836
20
145.000241
11
212.499836
21
148.000084
0
LINE
8
front_outsideCutPath
10
212.499836
20
148.000084
11
200.499674
21
148.000084
0
LINE
8
front_outsideCutPath
10
200.499674
20
148.000084
11
200.499674
21
145.000241
0
LINE
8
front_outsideCutPath
10
200.499674
20
145.000241
11
188.499777
21
145.000241
0
LINE
8
front_outsideCutPath
10
188.499777
20
145.000241
11
188.499777
21
148.000084
0
LINE
8
front_outsideCutPath
10
188.499777
20
148.000084
11
176.499880
21
148.000084
0
LINE
8
front_outsideCutPath
10
176.499880
20
148.000084
11
176.499880
21
145.000241
0
LINE
8
front_outsideCutPath
10
176.499880
20
145.000241
11
164.499718
21
145.000241
0
LINE
8
front_outsideCutPath
10
164.499718
20
145.000241
11
164.499718
21
148.000084
0
LINE
8
front_outsideCutPath
10
164.499718
20
148.000084
11
152.499820
21
148.000084
0
LINE
8
front_outsideCutPath
10
152.499820
20
148.000084
11
152.499820
21
145.000241
0
LINE
8
front_outsideCutPath
10
152.499820
20
145.000241
11
140.499923
21
145.000241
0
LINE
8
front_outsideCutPath
10
140.499923
20
145.000241
11
140.499923
21
148.000084
0
LINE
8
front_outsideCutPath
10
140.499923
20
148.000084
11
128.499761
21
148.000084
0
LINE
8
front_outsideCutPath
10
128.499761
20
148.000084
11
128.499761
21
145.000241
0
LINE
8
front_outsideCutPath
10
128.499761
20
145.000241
11
116.499864
21
145.000241
0
LINE
8
front_outsideCutPath
10
116.499864
20
145.000241
11
116.499864
21
148.000084
0
LINE
8
front_outsideCutPath
10
116.499864
20
148.000084
11
104.499966
21
148.000084
0
LINE
8
front_outsideCutPath
10
104.499966
20
148.000084
11
104.499966
21
145.000241
0
LINE
8
front_outsideCutPath
10
104.499966
20
145.000241
11
92.499804
21
145.000241
0
LINE
8
front_outsideCutPath
10
92.499804
20
145.000241
11
92.499804
21
148.000084
0
LINE
8
front_outsideCutPath
10
92.499804
20
148.000084
11
80.499907
21
148.000084
0
LINE
8
front_outsideCutPath
10
80.499907
20
148.000084
11
80.499907
21
145.000241
0
LINE
8
front_outsideCutPath
10
80.499907
20
145.000241
11
68.500010
21
145.000241
0
LINE
8
front_outsideCutPath
10
68.500010
20
145.000241
11
68.500010
21
148.000084
0
LINE
8
front_outsideCutPath
10
68.500010
20
148.000084
11
56.499848
21
148.000084
0
LINE
8
front_outsideCutPath
10
56.499848
20
148.000084
11
56.499848
21
145.000241
0
LINE
8
front_outsideCutPath
10
56.499848
20
145.000241
11
44.499950
21
145.000241
0
LINE
8
front_outsideCutPath
10
44.499950
20
145.000241
11
44.499950
21
148.000084
0
LINE
8
front_outsideCutPath
10
44.499950
20
148.000084
11
32.500053
21
148.000084
0
LINE
8
front_outsideCutPath
10
32.500053
20
148.000084
11
32.500053
21
145.000241
0
LINE
8
front_outsideCutPath
10
32.500053
20
145.000241
11
20.499970
21
145.000241
0
LINE
8
front_outsideCutPath
10
20.499970
20
145.000241
11
20.499970
21
148.000084
0
LINE
8
front_outsideCutPath
10
20.499970
20
148.000084
11
8.499993
21
148.000084
0
LINE
8
front_outsideCutPath
10
8.499993
20
148.000084
11
0.000000
21
148.000084
0
LINE
8
left_outsideCutPath
10
298.999957
20
148.000084
11
298.999957
21
129.500176
0
LINE
8
left_outsideCutPath
10
298.999957
20
129.500176
11
295.999585
21
129.500176
0
LINE
8
left_outsideCutPath
10
295.999585
20
129.500176
11
295.999585
21
117.500278
0
LINE
8
left_outsideCutPath
10
295.999585
20
117.500278
11
298.999957
21
117.500278
0
LINE
8
left_outsideCutPath
10
298.999957
20
117.500278
11
298.999957
21
105.500116
0
LINE
8
left_outsideCutPath
10
298.999957
20
105.500116
11
295.999585
21
105.500116
0
LINE
8
left_outsideCutPath
10
295.999585
20
105.500116
11
295.999585
21
93.500219
0
LINE
8
left_outsideCutPath
10
295.999585
20
93.500219
11
298.999957
21
93.500219
0
LINE
8
left_outsideCutPath
10
298.999957
20
93.500219
11
298.999957
21
81.500321
0
LINE
8
left_outsideCutPath
10
298.999957
20
81.500321
11
295.999585
21
81.500321
0
LINE
8
left_outsideCutPath
10
295.999585
20
81.500321
11
295.999585
21
69.500160
0
LINE
8
left_outsideCutPath
10
295.999585
20
69.500160
11
298.999957
21
69.500160
0
LINE
8
left_outsideCutPath
10
298.999957
20
69.500160
11
298.999957
21
57.500262
0
LINE
8
left_outsideCutPath
10
298.999957
20
57.500262
11
295.999585
21
57.500262
0
LINE
8
left_outsideCutPath
10
295.999585
20
57.500262
11
295.999585
21
45.500365
0
LINE
8
left_outsideCutPath
10
295.999585
20
45.500365
11
298.999957
21
45.500365
0
LINE
8
left_outsideCutPath
10
298.999957
20
45.500365
11
298.999957
21
33.500203
0
LINE
8
left_outsideCutPath
10
298.999957
20
33.500203
11
295.999585
21
33.500203
0
LINE
8
left_outsideCutPath
10
295.999585
20
33.500203
11
295.999585
21
21.500305
0
LINE
8
left_outsideCutPath
10
295.999585
20
21.500305
11
298.999957
21
21.500305
0
LINE
8
left_outsideCutPath
10
298.999957
20
21.500305
11
298.999957
21
9.501466
0
LINE
8
left_outsideCutPath
10
298.999957
20
9.501466
11
298.999957
21
3.000662
0
LINE
8
left_outsideCutPath
10
298.999957
20
3.000662
11
311.998919
21
3.000662
0
LINE
8
left_outsideCutPath
10
311.998919
20
3.000662
11
311.998919
21
6.001033
0
LINE
8
left_outsideCutPath
10
311.998919
20
6.001033
11
324.000404
21
6.001033
0
LINE
8
left_outsideCutPath
10
324.000404
20
6.001033
11
324.000404
21
3.000662
0
LINE
8
left_outsideCutPath
10
324.000404
20
3.000662
11
335.999243
21
3.000662
0
LINE
8
left_outsideCutPath
10
335.999243
20
3.000662
11
335.999243
21
6.001033
0
LINE
8
left_outsideCutPath
10
335.999243
20
6.001033
11
348.000728
21
6.001033
0
LINE
8
left_outsideCutPath
10
348.000728
20
6.001033
11
348.000728
21
3.000662
0
LINE
8
left_outsideCutPath
10
348.000728
20
3.000662
11
359.999567
21
3.000662
0
LINE
8
left_outsideCutPath
10
359.999567
20
3.000662
11
359.999567
21
6.001033
0
LINE
8
left_outsideCutPath
10
359.999567
20
6.001033
11
371.998406
21
6.001033
0
LINE
8
left_outsideCutPath
10
371.998406
20
6.001033
11
371.998406
21
3.000662
0
LINE
8
left_outsideCutPath
10
371.998406
20
3.000662
11
383.999891
21
3.000662
0
LINE
8
left_outsideCutPath
10
383.999891
20
3.000662
11
385.000015
21
3.000662
0
LINE
8
left_outsideCutPath
10
385.000015
20
3.000662
11
385.000015
21
21.500305
0
LINE
8
left_outsideCutPath
10
385.000015
20
21.500305
11
388.000386
21
21.500305
0
LINE
8
left_outsideCutPath
10
388.000386
20
21.500305
11
388.000386
21
33.500203
0
LINE
8
left_outsideCutPath
10
388.000386
20
33.500203
11
385.000015
21
33.500203
0
LINE
8
left_outsideCutPath
10
385.000015
20
33.500203
11
385.000015
21
45.500365
0
LINE
8
left_outsideCutPath
10
385.000015
20
45.500365
11
388.000386
21
45.500365
0
LINE
8
left_outsideCutPath
10
388.000386
20
45.500365
11
388.000386
21
57.500262
0
LINE
8
left_outsideCutPath
10
388.000386
20
57.500262
11
385.000015
21
57.500262
0
LINE
8
left_outsideCutPath
10
385.000015
20
57.500262
11
385.000015
21
69.500160
0
LINE
8
left_outsideCutPath
10
385.000015
20
69.500160
11
388.000386
21
69.500160
0
LINE
8
left_outsideCutPath
10
388.000386
20
69.500160
11
388.000386
21
81.500321
0
LINE
8
left_outsideCutPath
10
388.000386
20
81.500321
11
385.000015
21
81.500321
0
LINE
8
left_outsideCutPath
10
385.000015
20
81.500321
11
385.000015
21
93.500219
0
LINE
8
left_outsideCutPath
10
385.000015
20
93.500219
11
388.000386
21
93.500219
0
LINE
8
left_outsideCutPath
10
388.000386
20
93.500219
11
388.000386
21
105.500116
0
LINE
8
left_outsideCutPath
10
388.000386
20
105.500116
11
385.000015
21
105.500116
0
LINE
8
left_outsideCutPath
10
385.000015
20
105.500116
11
385.000015
21
117.500278
0
LINE
8
left_outsideCutPath
10
385.000015
20
117.500278
11
388.000386
21
117.500278
0
LINE
8
left_outsideCutPath
10
388.000386
20
117.500278
11
388.000386
21
129.500176
0
LINE
8
left_outsideCutPath
10
388.000386
20
129.500176
11
385.000015
21
129.500176
0
LINE
8
left_outsideCutPath
10
385.000015
20
129.500176
11
385.000015
21
141.500073
0
LINE
8
left_outsideCutPath
10
385.000015
20
141.500073
11
385.000015
21
148.000084
0
LINE
8
left_outsideCutPath
10
385.000015
20
148.000084
11
371.998406
21
148.000084
0
LINE
8
left_outsideCutPath
10
371.998406
20
148.000084
11
371.998406
21
145.000241
0
LINE
8
left_outsideCutPath
10
371.998406
20
145.000241
11
359.999567
21
145.000241
0
LINE
8
left_outsideCutPath
10
359.999567
20
145.000241
11
359.999567
21
148.000084
0
LINE
8
left_outsideCutPath
10
359.999567
20
148.000084
11
348.000728
21
148.000084
0
LINE
8
left_outsideCutPath
10
348.000728
20
148.000084
11
348.000728
21
145.000241
0
LINE
8
left_outsideCutPath
10
348.000728
20
145.000241
11
335.999243
21
145.000241
0
LINE
8
left_outsideCutPath
10
335.999243
20
145.000241
11
335.999243
21
148.000084
0
LINE
8
left_outsideCutPath
10
335.999243
20
148.000084
11
324.000404
21
148.000084
0
LINE
8
left_outsideCutPath
10
324.000404
20
148.000084
11
324.000404
21
145.000241
0
LINE
8
left_outsideCutPath
10
324.000404
20
145.000241
11
311.998919
21
145.000241
0
LINE
8
left_outsideCutPath
10
311.998919
20
145.000241
11
311.998919
21
148.000084
0
LINE
8
left_outsideCutPath
10
311.998919
20
148.000084
11
300.000080
21
148.000084
0
LINE
8
left_outsideCutPath
10
300.000080
20
148.000084
11
298.999957
21
148.000084
0
LINE
8
top_outsideCutPath
10
393.998483
20
92.000298
11
393.998483
21
79.000277
0
LINE
8
top_outsideCutPath
10
393.998483
20
79.000277
11
391.000757
21
79.000277
0
LINE
8
top_outsideCutPath
10
391.000757
20
79.000277
11
391.000757
21
67.000379
0
LINE
8
top_outsideCutPath
10
391.000757
20
67.000379
11
393.998483
21
67.000379
0
LINE
8
top_outsideCutPath
10
393.998483
20
67.000379
11
393.998483
21
55.000217
0
LINE
8
top_outsideCutPath
10
393.998483
20
55.000217
11
391.000757
21
55.000217
0
LINE
8
top_outsideCutPath
10
391.000757
20
55.000217
11
391.000757
21
43.000320
0
LINE
8
top_outsideCutPath
10
391.000757
20
43.000320
11
393.998483
21
43.000320
0
LINE
8
top_outsideCutPath
10
393.998483
20
43.000320
11
393.998483
21
31.001481
0
LINE
8
top_outsideCutPath
10
393.998483
20
31.001481
11
391.000757
21
31.001481
0
LINE
8
top_outsideCutPath
10
391.000757
20
31.001481
11
391.000757
21
18.999996
0
LINE
8
top_outsideCutPath
10
391.000757
20
18.999996
11
393.998483
21
18.999996
0
LINE
8
top_outsideCutPath
10
393.998483
20
18.999996
11
393.998483
21
7.001157
0
LINE
8
top_outsideCutPath
10
393.998483
20
7.001157
11
393.998483
21
6.001033
0
LINE
8
top_outsideCutPath
10
393.998483
20
6.001033
11
411.500648
21
6.001033
0
LINE
8
top_outsideCutPath
10
411.500648
20
6.001033
11
411.500648
21
3.000662
0
LINE
8
top_outsideCutPath
10
411.500648
20
3.000662
11
423.499487
21
3.000662
0
LINE
8
top_outsideCutPath
10
423.499487
20
3.000662
11
423.499487
21
6.001033
0
LINE
8
top_outsideCutPath
10
423.499487
20
6.001033
11
435.498326
21
6.001033
0
LINE
8
top_outsideCutPath
10
435.498326
20
6.001033
11
435.498326
21
3.000662
0
LINE
8
top_outsideCutPath
10
435.498326
20
3.000662
11
447.499811
21
3.000662
0
LINE
8
top_outsideCutPath
10
447.499811
20
3.000662
11
447.499811
21
6.001033
0
LINE
8
top_outsideCutPath
10
447.499811
20
6.001033
11
459.498650
21
6.001033
0
LINE
8
top_outsideCutPath
10
459.498650
20
6.001033
11
459.498650
21
3.000662
0
LINE
8
top_outsideCutPath
10
459.498650
20
3.000662
11
471.500135
21
3.000662
0
LINE
8
top_outsideCutPath
10
471.500135
20
3.000662
11
471.500135
21
6.001033
0
LINE
8
top_outsideCutPath
10
471.500135
20
6.001033
11
483.498974
21
6.001033
0
LINE
8
top_outsideCutPath
10
483.498974
20
6.001033
11
483.498974
21
3.000662
0
LINE
8
top_outsideCutPath
10
483.498974
20
3.000662
11
495.500459
21
3.000662
0
LINE
8
top_outsideCutPath
10
495.500459
20
3.000662
11
495.500459
21
6.001033
0
LINE
8
top_outsideCutPath
10
495.500459
20
6.001033
11
507.499298
21
6.001033
0
LINE
8
top_outsideCutPath
10
507.499298
20
6.001033
11
507.499298
21
3.000662
0
LINE
8
top_outsideCutPath
10
507.499298
20
3.000662
11
519.498137
21
3.000662
0
LINE
8
top_outsideCutPath
10
519.498137
20
3.000662
11
519.498137
21
6.001033
0
LINE
8
top_outsideCutPath
10
519.498137
20
6.001033
11
531.499622
21
6.001033
0
LINE
8
top_outsideCutPath
10
531.499622
20
6.001033
11
531.499622
21
3.000662
0
LINE
8
top_outsideCutPath
10
531.499622
20
3.000662
11
543.498461
21
3.000662
0
LINE
8
top_outsideCutPath
10
543.498461
20
3.000662
11
543.498461
21
6.001033
0
LINE
8
top_outsideCutPath
10
543.498461
20
6.001033
11
555.499946
21
6.001033
0
LINE
8
top_outsideCutPath
10
555.499946
20
6.001033
11
555.499946
21
3.000662
0
LINE
8
top_outsideCutPath
10
555.499946
20
3.000662
11
567.498785
21
3.000662
0
LINE
8
top_outsideCutPath
10
567.498785
20
3.000662
11
567.498785
21
6.001033
0
LINE
8
top_outsideCutPath
10
567.498785
20
6.001033
11
579.500270
21
6.001033
0
LINE
8
top_outsideCutPath
10
579.500270
20
6.001033
11
579.500270
21
3.000662
0
LINE
8
top_outsideCutPath
10
579.500270
20
3.000662
11
591.499109
21
3.000662
0
LINE
8
top_outsideCutPath
10
591.499109
20
3.000662
11
591.499109
21
6.001033
0
LINE
8
top_outsideCutPath
10
591.499109
20
6.001033
11
603.497948
21
6.001033
0
LINE
8
top_outsideCutPath
10
603.497948
20
6.001033
11
603.497948
21
3.000662
0
LINE
8
top_outsideCutPath
10
603.497948
20
3.000662
11
615.499433
21
3.000662
0
LINE
8
top_outsideCutPath
10
615.499433
20
3.000662
11
615.499433
21
6.001033
0
LINE
8
top_outsideCutPath
10
615.499433
20
6.001033
11
627.498272
21
6.001033
0
LINE
8
top_outsideCutPath
10
627.498272
20
6.001033
11
627.498272
21
3.000662
0
LINE
8
top_outsideCutPath
10
627.498272
20
3.000662
11
639.499757
21
3.000662
0
LINE
8
top_outsideCutPath
10
639.499757
20
3.000662
11
639.499757
21
6.001033
0
LINE
8
top_outsideCutPath
10
639.499757
20
6.001033
11
651.498596
21
6.001033
0
LINE
8
top_outsideCutPath
10
651.498596
20
6.001033
11
651.498596
21
3.000662
0
LINE
8
top_outsideCutPath
10
651.498596
20
3.000662
11
663.500081
21
3.000662
0
LINE
8
top_outsideCutPath
10
663.500081
20
3.000662
11
663.500081
21
6.001033
0
LINE
8
top_outsideCutPath
10
663.500081
20
6.001033
11
675.498920
21
6.001033
0
LINE
8
top_outsideCutPath
10
675.498920
20
6.001033
11
680.999600
21
6.001033
0
LINE
8
top_outsideCutPath
10
680.999600
20
6.001033
11
680.999600
21
18.999996
0
LINE
8
top_outsideCutPath
10
680.999600
20
18.999996
11
683.999972
21
18.999996
0
LINE
8
top_outsideCutPath
10
683.999972
20
18.999996
11
683.999972
21
31.001481
0
LINE
8
top_outsideCutPath
10
683.999972
20
31.001481
11
680.999600
21
31.001481
0
LINE
8
top_outsideCutPath
10
680.999600
20
31.001481
11
680.999600
21
37.153806
0
LINE
8
top_outsideCutPath
10
680.999600
20
91.000174
11
680.999600
21
92.000298
0
LINE
8
top_outsideCutPath
10
586.140774
20
95.000140
11
579.500270
21
95.000140
0
LINE
8
top_outsideCutPath
10
579.500270
20
95.000140
11
579.500270
21
92.000298
0
LINE
8
top_outsideCutPath
10
579.500270
20
92.000298
11
567.498785
21
92.000298
0
LINE
8
top_outsideCutPath
10
567.498785
20
92.000298
11
567.498785
21
95.000140
0
LINE
8
top_outsideCutPath
10
567.498785
20
95.000140
11
555.499946
21
95.000140
0
LINE
8
top_outsideCutPath
10
555.499946
20
95.000140
11
555.499946
21
92.000298
0
LINE
8
top_outsideCutPath
10
555.499946
20
92.000298
11
543.498461
21
92.000298
0
LINE
8
top_outsideCutPath
10
543.498461
20
92.000298
11
543.498461
21
95.000140
0
LINE
8
top_outsideCutPath
10
543.498461
20
95.000140
11
531.499622
21
95.000140
0
LINE
8
top_outsideCutPath
10
531.499622
20
95.000140
11
531.499622
21
92.000298
0
LINE
8
top_outsideCutPath
10
531.499622
20
92.000298
11
519.498137
21
92.000298
0
LINE
8
top_outsideCutPath
10
519.498137
20
92.000298
11
519.498137
21
95.000140
0
LINE
8
top_outsideCutPath
10
519.498137
20
95.000140
11
507.499298
21
95.000140
0
LINE
8
top_outsideCutPath
10
507.499298
20
95.000140
11
507.499298
21
92.000298
0
LINE
8
top_outsideCutPath
10
507.499298
20
92.000298
11
495.500459
21
92.000298
0
LINE
8
top_outsideCutPath
10
495.500459
20
92.000298
11
495.500459
21
95.000140
0
LINE
8
top_outsideCutPath
10
495.500459
20
95.000140
11
483.498974
21
95.000140
0
LINE
8
top_outsideCutPath
10
483.498974
20
95.000140
11
483.498974
21
92.000298
0
LINE
8
top_outsideCutPath
10
483.498974
20
92.000298
11
471.500135
21
92.000298
0
LINE
8
top_outsideCutPath
10
471.500135
20
92.000298
11
471.500135
21
95.000140
0
LINE
8
top_outsideCutPath
10
471.500135
20
95.000140
11
459.498650
21
95.000140
0
LINE
8
top_outsideCutPath
10
459.498650
20
95.000140
11
459.498650
21
92.000298
0
LINE
8
top_outsideCutPath
10
459.498650
20
92.000298
11
447.499811
21
92.000298
0
LINE
8
top_outsideCutPath
10
447.499811
20
92.000298
11
447.499811
21
95.000140
0
LINE
8
top_outsideCutPath
10
447.499811
20
95.000140
11
435.498326
21
95.000140
0
LINE
8
top_outsideCutPath
10
435.498326
20
95.000140
11
435.498326
21
92.000298
0
LINE
8
top_outsideCutPath
10
435.498326
20
92.000298
11
423.499487
21
92.000298
0
LINE
8
top_outsideCutPath
10
423.499487
20
92.000298
11
423.499487
21
95.000140
0
LINE
8
top_outsideCutPath
10
423.499487
20
95.000140
11
411.500648
21
95.000140
0
LINE
8
top_outsideCutPath
10
411.500648
20
95.000140
11
411.500648
21
92.000298
0
LINE
8
top_outsideCutPath
10
411.500648
20
92.000298
11
399.499163
21
92.000298
0
LINE
8
top_outsideCutPath
10
399.499163
20
92.000298
11
393.998483
21
92.000298
0
LINE
8
Layer 1
10
153.774734
20
257.335880
11
153.918163
21
257.335880
0
LINE
8
Layer 1
10
153.918054
20
257.335880
11
154.189039
21
256.761062
0
LINE
8
Layer 1
10
154.188903
20
256.761062
11
156.013018
21
253.859601
0
LINE
8
Layer 1
10
156.013018
20
253.859601
11
163.979552
21
241.843177
0
LINE
8
Layer 1
10
163.979552
20
241.843177
11
165.089771
21
240.118723
0
LINE
8
Layer 1
10
165.089771
20
240.118723
11
165.449990
21
239.543907
0
LINE
8
Layer 1
10
165.449990
20
239.543907
11
165.777636
21
238.941715
0
LINE
8
Layer 1
10
165.777636
20
238.941715
11
166.072436
21
238.312154
0
LINE
8
Layer 1
10
166.072436
20
238.312154
11
166.333567
21
237.682593
0
LINE
8
Layer 1
10
166.333567
20
237.682593
11
166.561304
21
237.053029
0
LINE
8
Layer 1
10
166.561304
20
237.053029
11
166.754826
21
236.396094
0
LINE
8
Layer 1
10
166.754826
20
236.396094
11
166.913859
21
235.711788
0
LINE
8
Layer 1
10
166.913859
20
235.711788
11
167.038403
21
235.054855
0
LINE
8
Layer 1
10
167.038403
20
235.054855
11
167.127637
21
234.370548
0
LINE
8
Layer 1
10
167.127637
20
234.370548
11
167.167600
21
233.905219
0
LINE
8
Layer 1
10
167.167600
20
233.905219
11
167.181279
21
233.604124
0
LINE
8
Layer 1
10
167.181013
20
233.604124
11
167.186489
21
233.303029
0
LINE
8
Layer 1
10
167.187034
20
233.303029
11
167.185356
21
233.001934
0
LINE
8
Layer 1
10
167.185391
20
233.001934
11
167.177188
21
232.673468
0
LINE
8
Layer 1
10
167.176634
20
232.673468
11
167.160206
21
232.372371
0
LINE
8
Layer 1
10
167.160483
20
232.372371
11
167.135849
21
232.071276
0
LINE
8
Layer 1
10
167.136942
20
232.071276
11
167.106012
21
231.770181
0
LINE
8
Layer 1
10
167.106012
20
231.770181
11
167.067966
21
231.469087
0
LINE
8
Layer 1
10
167.067966
20
231.469087
11
167.022800
21
231.167992
0
LINE
8
Layer 1
10
167.022800
20
231.167992
11
166.970247
21
230.866897
0
LINE
8
Layer 1
10
166.970247
20
230.866897
11
166.910848
21
230.565802
0
LINE
8
Layer 1
10
166.910848
20
230.565802
11
166.844059
21
230.264707
0
LINE
8
Layer 1
10
166.844059
20
230.264707
11
166.770154
21
229.963613
0
LINE
8
Layer 1
10
166.770154
20
229.963613
11
166.689132
21
229.662518
0
LINE
8
Layer 1
10
166.689132
20
229.662518
11
166.601268
21
229.361423
0
LINE
8
Layer 1
10
166.601268
20
229.361423
11
166.506286
21
229.087700
0
LINE
8
Layer 1
10
166.506286
20
229.087700
11
166.404189
21
228.786605
0
LINE
8
Layer 1
10
166.404189
20
228.786605
11
166.295520
21
228.512882
0
LINE
8
Layer 1
10
166.295520
20
228.512882
11
166.179462
21
228.211787
0
LINE
8
Layer 1
10
166.179462
20
228.211787
11
166.056833
21
227.938064
0
LINE
8
Layer 1
10
166.056833
20
227.938064
11
165.927362
21
227.664341
0
LINE
8
Layer 1
10
165.927362
20
227.664341
11
165.790774
21
227.390620
0
LINE
8
Layer 1
10
165.790774
20
227.390620
11
165.647617
21
227.116897
0
LINE
8
Layer 1
10
165.647617
20
227.116897
11
165.497619
21
226.843174
0
LINE
8
Layer 1
10
165.497619
20
226.843174
11
165.341049
21
226.596824
0
LINE
8
Layer 1
10
165.341049
20
226.596824
11
165.177637
21
226.323101
0
LINE
8
Layer 1
10
165.177637
20
226.323101
11
165.007381
21
226.076750
0
LINE
8
Layer 1
10
165.007381
20
226.076750
11
164.830556
21
225.830400
0
LINE
8
Layer 1
10
164.830556
20
225.830400
11
164.647435
21
225.584049
0
LINE
8
Layer 1
10
164.647435
20
225.584049
11
164.409845
21
225.255583
0
LINE
8
Layer 1
10
164.409845
20
225.255583
11
164.162398
21
224.954488
0
LINE
8
Layer 1
10
164.162398
20
224.954488
11
163.905374
21
224.680765
0
LINE
8
Layer 1
10
163.905374
20
224.680765
11
163.639315
21
224.379670
0
LINE
8
Layer 1
10
163.639315
20
224.379670
11
163.364224
21
224.105947
0
LINE
8
Layer 1
10
163.364224
20
224.105947
11
163.080592
21
223.832224
0
LINE
8
Layer 1
10
163.080592
20
223.832224
11
162.788749
21
223.585874
0
LINE
8
Layer 1
10
162.788749
20
223.585874
11
162.489023
21
223.339523
0
LINE
8
Layer 1
10
162.489023
20
223.339523
11
162.181688
21
223.093174
0
LINE
8
Layer 1
10
162.181688
20
223.093174
11
161.867126
21
222.874196
0
LINE
8
Layer 1
10
161.867126
20
222.874196
11
161.545637
21
222.655216
0
LINE
8
Layer 1
10
161.545637
20
222.655216
11
161.217553
21
222.436238
0
LINE
8
Layer 1
10
161.217553
20
222.436238
11
160.883228
21
222.244632
0
LINE
8
Layer 1
10
160.883228
20
222.244632
11
160.542964
21
222.053027
0
LINE
8
Layer 1
10
160.542964
20
222.053027
11
160.197088
21
221.861421
0
LINE
8
Layer 1
10
160.197088
20
221.861421
11
159.845956
21
221.697188
0
LINE
8
Layer 1
10
159.845956
20
221.697188
11
159.489843
21
221.560326
0
LINE
8
Layer 1
10
159.489843
20
221.560326
11
159.129131
21
221.396094
0
LINE
8
Layer 1
10
159.129131
20
221.396094
11
158.764149
21
221.259231
0
LINE
8
Layer 1
10
158.764149
20
221.259231
11
158.395173
21
221.149742
0
LINE
8
Layer 1
10
158.395173
20
221.149742
11
158.022581
21
221.012882
0
LINE
8
Layer 1
10
158.022581
20
221.012882
11
157.646677
21
220.930764
0
LINE
8
Layer 1
10
157.646677
20
220.930764
11
157.267789
21
220.821276
0
LINE
8
Layer 1
10
157.267789
20
220.821276
11
156.886247
21
220.766530
0
LINE
8
Layer 1
10
156.886247
20
220.766530
11
156.502406
21
220.684413
0
LINE
8
Layer 1
10
156.502406
20
220.684413
11
156.116540
21
220.629670
0
LINE
8
Layer 1
10
156.116540
20
220.629670
11
155.729031
21
220.602298
0
LINE
8
Layer 1
10
155.729031
20
220.602298
11
155.340207
21
220.574924
0
LINE
8
Layer 1
10
155.340207
20
220.574924
11
154.950344
21
220.547553
0
LINE
8
Layer 1
10
154.950344
20
220.547553
11
154.302498
21
220.547553
0
LINE
8
Layer 1
10
154.302498
20
220.547553
11
153.869989
21
220.574924
0
LINE
8
Layer 1
10
153.869989
20
220.574924
11
153.007487
21
220.657041
0
LINE
8
Layer 1
10
153.007487
20
220.657041
11
152.151968
21
220.793902
0
LINE
8
Layer 1
10
152.151968
20
220.793902
11
151.307672
21
220.985508
0
LINE
8
Layer 1
10
151.307672
20
220.985508
11
150.684405
21
221.149742
0
LINE
8
Layer 1
10
150.684405
20
221.149742
11
150.071676
21
221.368720
0
LINE
8
Layer 1
10
150.071676
20
221.368720
11
149.471266
21
221.615071
0
LINE
8
Layer 1
10
149.471266
20
221.615071
11
148.885007
21
221.888794
0
LINE
8
Layer 1
10
148.885007
20
221.888794
11
148.314677
21
222.217261
0
LINE
8
Layer 1
10
148.314677
20
222.217261
11
147.982734
21
222.408867
0
LINE
8
Layer 1
10
147.982734
20
222.408867
11
147.657360
21
222.600473
0
LINE
8
Layer 1
10
147.657360
20
222.600473
11
147.338801
21
222.819450
0
LINE
8
Layer 1
10
147.338801
20
222.819450
11
147.027278
21
223.065802
0
LINE
8
Layer 1
10
147.027278
20
223.065802
11
146.722980
21
223.284779
0
LINE
8
Layer 1
10
146.722980
20
223.284779
11
146.426155
21
223.531129
0
LINE
8
Layer 1
10
146.426155
20
223.531129
11
146.136966
21
223.777480
0
LINE
8
Layer 1
10
146.136966
20
223.777480
11
145.855663
21
224.051203
0
LINE
8
Layer 1
10
145.855663
20
224.051203
11
145.582487
21
224.324924
0
LINE
8
Layer 1
10
145.582460
20
224.324924
11
145.317497
21
224.598647
0
LINE
8
Layer 1
10
145.317551
20
224.598647
11
145.061072
21
224.872371
0
LINE
8
Layer 1
10
145.061154
20
224.872371
11
144.813437
21
225.173465
0
LINE
8
Layer 1
10
144.813491
20
225.173465
11
144.574804
21
225.474560
0
LINE
8
Layer 1
10
144.574750
20
225.474560
11
144.345097
21
225.775655
0
LINE
8
Layer 1
10
144.345179
20
225.775655
11
144.124831
21
226.104124
0
LINE
8
Layer 1
10
144.124970
20
226.104124
11
143.914202
21
226.432590
0
LINE
8
Layer 1
10
143.914340
20
226.432590
11
143.713427
21
226.761057
0
LINE
8
Layer 1
10
143.713509
20
226.761057
11
143.522723
21
227.089525
0
LINE
8
Layer 1
10
143.522669
20
227.089525
11
143.342013
21
227.417992
0
LINE
8
Layer 1
10
143.342040
20
227.417992
11
143.171784
21
227.773832
0
LINE
8
Layer 1
10
143.171839
20
227.773832
11
143.012258
21
228.129670
0
LINE
8
Layer 1
10
143.012285
20
228.129670
11
142.863654
21
228.485510
0
LINE
8
Layer 1
10
142.863600
20
228.485510
11
142.725917
21
228.841348
0
LINE
8
Layer 1
10
142.725944
20
228.841348
11
142.599484
21
229.197189
0
LINE
8
Layer 1
10
142.599595
20
229.197189
11
142.484630
21
229.553029
0
LINE
8
Layer 1
10
142.484739
20
229.553029
11
142.381547
21
229.936241
0
LINE
8
Layer 1
10
142.381574
20
229.936241
11
142.290425
21
230.292079
0
LINE
8
Layer 1
10
142.290343
20
230.292079
11
142.211237
21
230.675291
0
LINE
8
Layer 1
10
142.211209
20
230.675291
11
142.144421
21
231.058503
0
LINE
8
Layer 1
10
142.144448
20
231.058503
11
142.093263
21
231.359598
0
LINE
8
Layer 1
10
142.093372
20
231.359598
11
142.050672
21
231.660693
0
LINE
8
Layer 1
10
142.050754
20
231.660693
11
142.016538
21
231.989161
0
LINE
8
Layer 1
10
142.016456
20
231.989161
11
141.989082
21
232.290256
0
LINE
8
Layer 1
10
141.990425
20
232.290256
11
141.971270
21
232.591351
0
LINE
8
Layer 1
10
141.972549
20
232.591351
11
141.961597
21
232.892446
0
LINE
8
Layer 1
10
141.962779
20
232.892446
11
141.961100
21
233.220912
0
LINE
8
Layer 1
10
141.960999
20
233.220912
11
141.966475
21
233.522007
0
LINE
8
Layer 1
10
141.967130
20
233.522007
11
141.980810
21
233.823102
0
LINE
8
Layer 1
10
141.981091
20
233.823102
11
142.002989
21
234.124196
0
LINE
8
Layer 1
10
142.002770
20
234.124196
11
142.032058
21
234.452665
0
LINE
8
Layer 1
10
142.032112
20
234.452665
11
142.069066
21
234.753760
0
LINE
8
Layer 1
10
142.069011
20
234.753760
11
142.113354
21
235.054855
0
LINE
8
Layer 1
10
142.113382
20
235.054855
11
142.165114
21
235.355949
0
LINE
8
Layer 1
10
142.165142
20
235.355949
11
142.224266
21
235.657044
0
LINE
8
Layer 1
10
142.224211
20
235.657044
11
142.290452
21
235.958139
0
LINE
8
Layer 1
10
142.290479
20
235.958139
11
142.363837
21
236.259234
0
LINE
8
Layer 1
10
142.363864
20
236.259234
11
142.444339
21
236.560329
0
LINE
8
Layer 1
10
142.444311
20
236.560329
11
142.531630
21
236.861423
0
LINE
8
Layer 1
10
142.531684
20
236.861423
11
142.625844
21
237.162518
0
LINE
8
Layer 1
10
142.625926
20
237.162518
11
142.726930
21
237.436241
0
LINE
8
Layer 1
10
142.726958
20
237.436241
11
142.834804
21
237.737336
0
LINE
8
Layer 1
10
142.834667
20
237.737336
11
142.949084
21
238.011059
0
LINE
8
Layer 1
10
142.948973
20
238.011059
11
143.069685
21
238.312154
0
LINE
8
Layer 1
10
143.069823
20
238.312154
11
143.197104
21
238.585877
0
LINE
8
Layer 1
10
143.197077
20
238.585877
11
143.330654
21
238.859600
0
LINE
8
Layer 1
10
143.330681
20
238.859600
11
143.470552
21
239.133321
0
LINE
8
Layer 1
10
143.470525
20
239.133321
11
143.616693
21
239.407044
0
LINE
8
Layer 1
10
143.616556
20
239.407044
11
143.768745
21
239.680767
0
LINE
8
Layer 1
10
143.768636
20
239.680767
11
153.538592
21
256.761062
0
LINE
8
Layer 1
10
153.538592
20
256.761062
11
153.774816
21
257.335880
0
LINE
8
Layer 1
10
144.272780
20
233.138795
11
144.885206
21
230.675291
0
LINE
8
Layer 1
10
144.885206
20
230.675291
11
144.970607
21
230.428942
0
LINE
8
Layer 1
10
144.970689
20
230.428942
11
145.062388
21
230.209962
0
LINE
8
Layer 1
10
145.062304
20
230.209962
11
145.160024
21
229.963613
0
LINE
8
Layer 1
10
145.159997
20
229.963613
11
145.263737
21
229.744635
0
LINE
8
Layer 1
10
145.263655
20
229.744635
11
145.373144
21
229.498284
0
LINE
8
Layer 1
10
145.373172
20
229.498284
11
145.488409
21
229.279306
0
LINE
8
Layer 1
10
145.488518
20
229.279306
11
145.609505
21
229.060328
0
LINE
8
Layer 1
10
145.609559
20
229.060328
11
145.868499
21
228.622371
0
LINE
8
Layer 1
10
145.868472
20
228.622371
11
146.006155
21
228.403393
0
LINE
8
Layer 1
10
146.006155
20
228.403393
11
146.149312
21
228.184415
0
LINE
8
Layer 1
10
146.149230
20
228.184415
11
146.297588
21
227.965438
0
LINE
8
Layer 1
10
146.297561
20
227.965438
11
146.451118
21
227.773832
0
LINE
8
Layer 1
10
146.451118
20
227.773832
11
146.609878
21
227.582226
0
LINE
8
Layer 1
10
146.609769
20
227.582226
11
146.773454
21
227.390620
0
LINE
8
Layer 1
10
146.773483
20
227.390620
11
146.942096
21
227.199014
0
LINE
8
Layer 1
10
146.942123
20
227.199014
11
147.115663
21
227.007408
0
LINE
8
Layer 1
10
147.115608
20
227.007408
11
147.293801
21
226.815802
0
LINE
8
Layer 1
10
147.293883
20
226.815802
11
147.476731
21
226.651568
0
LINE
8
Layer 1
10
147.476840
20
226.651568
11
147.664340
21
226.459962
0
LINE
8
Layer 1
10
147.664395
20
226.459962
11
147.856548
21
226.295730
0
LINE
8
Layer 1
10
147.856494
20
226.295730
11
148.053026
21
226.131495
0
LINE
8
Layer 1
10
148.052999
20
226.131495
11
148.253912
21
225.994633
0
LINE
8
Layer 1
10
148.253855
20
225.994633
11
148.458874
21
225.830400
0
LINE
8
Layer 1
10
148.458984
20
225.830400
11
148.668381
21
225.693538
0
LINE
8
Layer 1
10
148.668272
20
225.693538
11
148.881503
21
225.556677
0
LINE
8
Layer 1
10
148.881640
20
225.556677
11
149.098974
21
225.419817
0
LINE
8
Layer 1
10
149.099029
20
225.419817
11
149.320472
21
225.282954
0
LINE
8
Layer 1
10
149.320335
20
225.282954
11
149.545335
21
225.173465
0
LINE
8
Layer 1
10
149.545471
20
225.173465
11
149.781695
21
225.036605
0
LINE
8
Layer 1
10
149.781611
20
225.036605
11
150.021119
21
224.927116
0
LINE
8
Layer 1
10
150.021119
20
224.927116
11
150.263637
21
224.817625
0
LINE
8
Layer 1
10
150.263748
20
224.817625
11
150.509277
21
224.708136
0
LINE
8
Layer 1
10
150.509331
20
224.708136
11
150.757598
21
224.626021
0
LINE
8
Layer 1
10
150.757653
20
224.626021
11
151.008383
21
224.543904
0
LINE
8
Layer 1
10
151.008492
20
224.543904
11
151.261686
21
224.461787
0
LINE
8
Layer 1
10
151.261713
20
224.461787
11
151.517097
21
224.379670
0
LINE
8
Layer 1
10
151.517042
20
224.379670
11
151.774341
21
224.324924
0
LINE
8
Layer 1
10
151.774341
20
224.324924
11
152.033281
21
224.270181
0
LINE
8
Layer 1
10
152.033336
20
224.270181
11
152.293921
21
224.215436
0
LINE
8
Layer 1
10
152.293893
20
224.215436
11
152.555846
21
224.160692
0
LINE
8
Layer 1
10
152.555792
20
224.160692
11
152.818840
21
224.133318
0
LINE
8
Layer 1
10
152.818810
20
224.133318
11
153.082681
21
224.105947
0
LINE
8
Layer 1
10
153.082763
20
224.105947
11
153.347451
21
224.078575
0
LINE
8
Layer 1
10
153.347451
20
224.078575
11
153.612690
21
224.078575
0
LINE
8
Layer 1
10
153.612663
20
224.078575
11
153.878174
21
224.051203
0
LINE
8
Layer 1
10
153.878228
20
224.051203
11
154.144012
21
224.051203
0
LINE
8
Layer 1
10
154.143903
20
224.051203
11
154.409414
21
224.051203
0
LINE
8
Layer 1
10
154.409496
20
224.051203
11
154.674733
21
224.078575
0
LINE
8
Layer 1
10
154.674844
20
224.078575
11
154.939807
21
224.105947
0
LINE
8
Layer 1
10
154.939696
20
224.105947
11
155.203839
21
224.133318
0
LINE
8
Layer 1
10
155.203867
20
224.133318
11
155.467187
21
224.160692
0
LINE
8
Layer 1
10
155.467160
20
224.160692
11
155.729386
21
224.215436
0
LINE
8
Layer 1
10
155.729386
20
224.215436
11
155.990245
21
224.242809
0
LINE
8
Layer 1
10
155.990327
20
224.242809
11
156.249815
21
224.297553
0
LINE
8
Layer 1
10
156.249788
20
224.297553
11
156.507634
21
224.379670
0
LINE
8
Layer 1
10
156.507580
20
224.379670
11
156.763511
21
224.434415
0
LINE
8
Layer 1
10
156.763484
20
224.434415
11
157.017225
21
224.516530
0
LINE
8
Layer 1
10
157.017307
20
224.516530
11
156.772050
21
224.489159
0
LINE
8
Layer 1
10
156.772023
20
224.489159
11
156.526221
21
224.461787
0
LINE
8
Layer 1
10
156.526194
20
224.461787
11
156.279843
21
224.434415
0
LINE
8
Layer 1
10
156.279897
20
224.434415
11
156.033273
21
224.407042
0
LINE
8
Layer 1
10
156.033273
20
224.407042
11
155.786376
21
224.379670
0
LINE
8
Layer 1
10
155.786403
20
224.379670
11
155.292526
21
224.379670
0
LINE
8
Layer 1
10
155.292526
20
224.379670
11
154.799223
21
224.407042
0
LINE
8
Layer 1
10
154.799223
20
224.407042
11
154.307424
21
224.461787
0
LINE
8
Layer 1
10
154.307424
20
224.461787
11
153.818145
21
224.516530
0
LINE
8
Layer 1
10
153.818145
20
224.516530
11
153.332316
21
224.598647
0
LINE
8
Layer 1
10
153.332316
20
224.598647
11
152.850892
21
224.735510
0
LINE
8
Layer 1
10
152.850892
20
224.735510
11
152.374834
21
224.872371
0
LINE
8
Layer 1
10
152.374834
20
224.872371
11
151.905126
21
225.009231
0
LINE
8
Layer 1
10
151.905126
20
225.009231
11
151.442698
21
225.200837
0
LINE
8
Layer 1
10
151.442698
20
225.200837
11
150.988537
21
225.392443
0
LINE
8
Layer 1
10
150.988537
20
225.392443
11
150.543574
21
225.611423
0
LINE
8
Layer 1
10
150.543574
20
225.611423
11
150.108794
21
225.830400
0
LINE
8
Layer 1
10
150.108794
20
225.830400
11
149.850947
21
225.994633
0
LINE
8
Layer 1
10
149.850974
20
225.994633
11
149.596685
21
226.158867
0
LINE
8
Layer 1
10
149.596631
20
226.158867
11
149.345901
21
226.295730
0
LINE
8
Layer 1
10
149.345901
20
226.295730
11
149.099002
21
226.487333
0
LINE
8
Layer 1
10
149.098947
20
226.487333
11
148.855881
21
226.651568
0
LINE
8
Layer 1
10
148.855909
20
226.651568
11
148.616949
21
226.815802
0
LINE
8
Layer 1
10
148.616921
20
226.815802
11
148.382068
21
227.007408
0
LINE
8
Layer 1
10
148.382122
20
227.007408
11
148.151649
21
227.199014
0
LINE
8
Layer 1
10
148.151676
20
227.199014
11
147.925580
21
227.390620
0
LINE
8
Layer 1
10
147.925691
20
227.390620
11
147.704248
21
227.609598
0
LINE
8
Layer 1
10
147.704330
20
227.609598
11
147.487815
21
227.801204
0
LINE
8
Layer 1
10
147.487734
20
227.801204
11
147.276145
21
228.020181
0
LINE
8
Layer 1
10
147.276036
20
228.020181
11
147.069377
21
228.239159
0
LINE
8
Layer 1
10
147.069404
20
228.239159
11
146.867943
21
228.458139
0
LINE
8
Layer 1
10
146.867970
20
228.458139
11
146.671986
21
228.677116
0
LINE
8
Layer 1
10
146.671849
20
228.677116
11
146.481339
21
228.896094
0
LINE
8
Layer 1
10
146.481227
20
228.896094
11
146.296193
21
229.142445
0
LINE
8
Layer 1
10
146.296193
20
229.142445
11
146.116902
21
229.388795
0
LINE
8
Layer 1
10
146.116959
20
229.388795
11
145.943693
21
229.607772
0
LINE
8
Layer 1
10
145.943609
20
229.607772
11
145.776366
21
229.854124
0
LINE
8
Layer 1
10
145.776311
20
229.854124
11
145.615088
21
230.127847
0
LINE
8
Layer 1
10
145.615169
20
230.127847
11
145.460517
21
230.374196
0
LINE
8
Layer 1
10
145.460406
20
230.374196
11
145.312050
21
230.620548
0
LINE
8
Layer 1
10
145.312104
20
230.620548
11
145.170316
21
230.894269
0
LINE
8
Layer 1
10
145.170397
20
230.894269
11
145.035452
21
231.167992
0
LINE
8
Layer 1
10
145.035480
20
231.167992
11
144.907377
21
231.414343
0
LINE
8
Layer 1
10
144.907461
20
231.414343
11
144.786474
21
231.688064
0
LINE
8
Layer 1
10
144.786474
20
231.688064
11
144.672607
21
231.989161
0
LINE
8
Layer 1
10
144.672688
20
231.989161
11
144.566210
21
232.262882
0
LINE
8
Layer 1
10
144.566210
20
232.262882
11
144.272780
21
233.138795
0
LINE
8
top_outsideCutPath
10
93.892585
20
210.719354
11
97.861330
21
210.719354
0
LINE
8
top_outsideCutPath
10
97.861330
20
210.719354
11
97.861330
21
202.781864
0
LINE
8
top_outsideCutPath
10
97.861330
20
202.781864
11
99.184245
21
202.781864
0
LINE
8
top_outsideCutPath
10
99.184245
20
202.781864
11
99.184245
21
205.427694
0
LINE
8
top_outsideCutPath
10
99.184245
20
205.427694
11
101.830075
21
205.427694
0
LINE
8
top_outsideCutPath
10
101.830075
20
205.427694
11
101.830075
21
202.781864
0
LINE
8
top_outsideCutPath
10
101.830075
20
202.781864
11
103.152990
21
202.781864
0
LINE
8
top_outsideCutPath
10
103.152990
20
202.781864
11
103.152990
21
210.719354
0
LINE
8
top_outsideCutPath
10
103.152990
20
210.719354
11
107.121735
21
210.719354
0
LINE
8
top_outsideCutPath
10
107.121735
20
210.719354
11
107.121735
21
197.490204
0
LINE
8
top_outsideCutPath
10
107.121735
20
197.490204
11
103.152990
21
197.490204
0
LINE
8
top_outsideCutPath
10
103.152990
20
197.490204
11
103.152990
21
198.813119
0
LINE
8
top_outsideCutPath
10
103.152990
20
198.813119
11
97.861330
21
198.813119
0
LINE
8
top_outsideCutPath
10
97.861330
20
198.813119
11
97.861330
21
197.490204
0
LINE
8
top_outsideCutPath
10
97.861330
20
197.490204
11
93.892585
21
197.490204
0
LINE
8
top_outsideCutPath
10
93.892585
20
197.490204
11
93.892585
21
210.719354
0
LINE
8
top_outsideCutPath
10
109.767565
20
210.719354
11
119.027970
21
210.719354
0
LINE
8
top_outsideCutPath
10
119.027970
20
210.719354
11
119.027970
21
197.490204
0
LINE
8
top_outsideCutPath
10
119.027970
20
197.490204
11
115.059225
21
197.490204
0
LINE
8
top_outsideCutPath
10
115.059225
20
197.490204
11
115.059225
21
201.458949
0
LINE
8
top_outsideCutPath
10
115.059225
20
201.458949
11
112.413395
21
201.458949
0
LINE
8
top_outsideCutPath
10
112.413395
20
201.458949
11
112.413395
21
197.490204
0
LINE
8
top_outsideCutPath
10
112.413395
20
197.490204
11
108.444650
21
197.490204
0
LINE
8
top_outsideCutPath
10
108.444650
20
197.490204
11
108.444650
21
208.073524
0
LINE
8
top_outsideCutPath
10
108.444650
20
208.073524
11
109.767565
21
208.073524
0
LINE
8
top_outsideCutPath
10
109.767565
20
208.073524
11
109.767565
21
210.719354
0
LINE
8
top_outsideCutPath
10
112.413395
20
206.750609
11
112.413395
21
205.427694
0
LINE
8
top_outsideCutPath
10
112.413395
20
205.427694
11
115.059225
21
205.427694
0
LINE
8
top_outsideCutPath
10
115.059225
20
205.427694
11
115.059225
21
206.750609
0
LINE
8
top_outsideCutPath
10
115.059225
20
206.750609
11
112.413395
21
206.750609
0
LINE
8
top_outsideCutPath
10
120.350885
20
210.719354
11
132.257120
21
210.719354
0
LINE
8
top_outsideCutPath
10
132.257120
20
210.719354
11
132.257120
21
206.750609
0
LINE
8
top_outsideCutPath
10
132.257120
20
206.750609
11
128.288375
21
206.750609
0
LINE
8
top_outsideCutPath
10
128.288375
20
206.750609
11
128.288375
21
197.490204
0
LINE
8
top_outsideCutPath
10
128.288375
20
197.490204
11
124.319630
21
197.490204
0
LINE
8
top_outsideCutPath
10
124.319630
20
197.490204
11
124.319630
21
206.750609
0
LINE
8
top_outsideCutPath
10
124.319630
20
206.750609
11
120.350885
21
206.750609
0
LINE
8
top_outsideCutPath
10
120.350885
20
206.750609
11
120.350885
21
210.719354
0
LINE
8
top_outsideCutPath
10
133.580035
20
210.719354
11
144.163355
21
210.719354
0
LINE
8
top_outsideCutPath
10
144.163355
20
210.719354
11
144.163355
21
206.750609
0
LINE
8
top_outsideCutPath
10
144.163355
20
206.750609
11
137.548780
21
206.750609
0
LINE
8
top_outsideCutPath
10
137.548780
20
206.750609
11
137.548780
21
205.427694
0
LINE
8
top_outsideCutPath
10
137.548780
20
205.427694
11
141.517525
21
205.427694
0
LINE
8
top_outsideCutPath
10
141.517525
20
205.427694
11
141.517525
21
202.781864
0
LINE
8
top_outsideCutPath
10
141.517525
20
202.781864
11
137.548780
21
202.781864
0
LINE
8
top_outsideCutPath
10
137.548780
20
202.781864
11
137.548780
21
201.458949
0
LINE
8
top_outsideCutPath
10
137.548780
20
201.458949
11
144.163355
21
201.458949
0
LINE
8
top_outsideCutPath
10
144.163355
20
201.458949
11
144.163355
21
197.490204
0
LINE
8
top_outsideCutPath
10
144.163355
20
197.490204
11
133.580035
21
197.490204
0
LINE
8
top_outsideCutPath
10
133.580035
20
197.490204
11
133.580035
21
210.719354
0
LINE
8
top_outsideCutPath
10
145.486270
20
210.719354
11
156.069590
21
210.719354
0
LINE
8
top_outsideCutPath
10
156.069590
20
210.719354
11
156.069590
21
204.104779
0
LINE
8
top_outsideCutPath
10
156.069590
20
204.104779
11
153.423760
21
204.104779
0
LINE
8
top_outsideCutPath
10
153.423760
20
204.104779
11
153.423760
21
202.781864
0
LINE
8
top_outsideCutPath
10
153.423760
20
202.781864
11
154.746675
21
202.781864
0
LINE
8
top_outsideCutPath
10
154.746675
20
202.781864
11
154.746675
21
200.136034
0
LINE
8
top_outsideCutPath
10
154.746675
20
200.136034
11
156.069590
21
200.136034
0
LINE
8
top_outsideCutPath
10
156.069590
20
200.136034
11
156.069590
21
197.490204
0
LINE
8
top_outsideCutPath
10
156.069590
20
197.490204
11
152.100845
21
197.490204
0
LINE
8
top_outsideCutPath
10
152.100845
20
197.490204
11
152.100845
21
200.136034
0
LINE
8
top_outsideCutPath
10
152.100845
20
200.136034
11
149.455015
21
200.136034
0
LINE
8
top_outsideCutPath
10
149.455015
20
200.136034
11
149.455015
21
197.490204
0
LINE
8
top_outsideCutPath
10
149.455015
20
197.490204
11
145.486270
21
197.490204
0
LINE
8
top_outsideCutPath
10
145.486270
20
197.490204
11
145.486270
21
210.719354
0
LINE
8
top_outsideCutPath
10
149.455015
20
206.750609
11
149.455015
21
204.104779
0
LINE
8
top_outsideCutPath
10
149.455015
20
204.104779
11
152.100845
21
204.104779
0
LINE
8
top_outsideCutPath
10
152.100845
20
204.104779
11
152.100845
21
206.750609
0
LINE
8
top_outsideCutPath
10
152.100845
20
206.750609
11
149.455015
21
206.750609
0
LINE
8
top_outsideCutPath
10
165.329995
20
210.719354
11
177.236230
21
210.719354
0
LINE
8
top_outsideCutPath
10
177.236230
20
210.719354
11
177.236230
21
206.750609
0
LINE
8
top_outsideCutPath
10
177.236230
20
206.750609
11
173.267485
21
206.750609
0
LINE
8
top_outsideCutPath
10
173.267485
20
206.750609
11
173.267485
21
197.490204
0
LINE
8
top_outsideCutPath
10
173.267485
20
197.490204
11
169.298740
21
197.490204
0
LINE
8
top_outsideCutPath
10
169.298740
20
197.490204
11
169.298740
21
206.750609
0
LINE
8
top_outsideCutPath
10
169.298740
20
206.750609
11
165.329995
21
206.750609
0
LINE
8
top_outsideCutPath
10
165.329995
20
206.750609
11
165.329995
21
210.719354
0
LINE
8
top_outsideCutPath
10
179.882060
20
210.719354
11
189.142465
21
210.719354
0
LINE
8
top_outsideCutPath
10
189.142465
20
210.719354
11
189.142465
21
197.490204
0
LINE
8
top_outsideCutPath
10
189.142465
20
197.490204
11
185.173720
21
197.490204
0
LINE
8
top_outsideCutPath
10
185.173720
20
197.490204
11
185.173720
21
201.458949
0
LINE
8
top_outsideCutPath
10
185.173720
20
201.458949
11
182.527890
21
201.458949
0
LINE
8
top_outsideCutPath
10
182.527890
20
201.458949
11
182.527890
21
197.490204
0
LINE
8
top_outsideCutPath
10
182.527890
20
197.490204
11
178.559145
21
197.490204
0
LINE
8
top_outsideCutPath
10
178.559145
20
197.490204
11
178.559145
21
208.073524
0
LINE
8
top_outsideCutPath
10
178.559145
20
208.073524
11
179.882060
21
208.073524
0
LINE
8
top_outsideCutPath
10
179.882060
20
208.073524
11
179.882060
21
210.719354
0
LINE
8
top_outsideCutPath
10
182.527890
20
206.750609
11
182.527890
21
205.427694
0
LINE
8
top_outsideCutPath
10
182.527890
20
205.427694
11
185.173720
21
205.427694
0
LINE
8
top_outsideCutPath
10
185.173720
20
205.427694
11
185.173720
21
206.750609
0
LINE
8
top_outsideCutPath
10
185.173720
20
206.750609
11
182.527890
21
206.750609
0
LINE
8
top_outsideCutPath
10
190.465380
20
210.719354
11
194.434125
21
210.719354
0
LINE
8
top_outsideCutPath
10
194.434125
20
210.719354
11
194.434125
21
208.073524
0
LINE
8
top_outsideCutPath
10
194.434125
20
208.073524
11
197.079955
21
208.073524
0
LINE
8
top_outsideCutPath
10
197.079955
20
208.073524
11
197.079955
21
204.104779
0
LINE
8
top_outsideCutPath
10
197.079955
20
204.104779
11
198.402870
21
204.104779
0
LINE
8
top_outsideCutPath
10
198.402870
20
204.104779
11
198.402870
21
210.719354
0
LINE
8
top_outsideCutPath
10
198.402870
20
210.719354
11
202.371615
21
210.719354
0
LINE
8
top_outsideCutPath
10
202.371615
20
210.719354
11
202.371615
21
197.490204
0
LINE
8
top_outsideCutPath
10
202.371615
20
197.490204
11
197.079955
21
197.490204
0
LINE
8
top_outsideCutPath
10
197.079955
20
197.490204
11
197.079955
21
201.458949
0
LINE
8
top_outsideCutPath
10
197.079955
20
201.458949
11
195.757040
21
201.458949
0
LINE
8
top_outsideCutPath
10
195.757040
20
201.458949
11
195.757040
21
204.104779
0
LINE
8
top_outsideCutPath
10
195.757040
20
204.104779
11
194.434125
21
204.104779
0
LINE
8
top_outsideCutPath
10
194.434125
20
204.104779
11
194.434125
21
197.490204
0
LINE
8
top_outsideCutPath
10
194.434125
20
197.490204
11
190.465380
21
197.490204
0
LINE
8
top_outsideCutPath
10
190.465380
20
197.490204
11
190.465380
21
210.719354
0
LINE
8
top_outsideCutPath
10
203.694530
20
210.719354
11
207.663275
21
210.719354
0
LINE
8
top_outsideCutPath
10
207.663275
20
210.719354
11
207.663275
21
205.427694
0
LINE
8
top_outsideCutPath
10
207.663275
20
205.427694
11
208.986190
21
205.427694
0
LINE
8
top_outsideCutPath
10
208.986190
20
205.427694
11
208.986190
21
206.750609
0
LINE
8
top_outsideCutPath
10
208.986190
20
206.750609
11
210.309105
21
206.750609
0
LINE
8
top_outsideCutPath
10
210.309105
20
206.750609
11
210.309105
21
210.719354
0
LINE
8
top_outsideCutPath
10
210.309105
20
210.719354
11
214.277850
21
210.719354
0
LINE
8
top_outsideCutPath
10
214.277850
20
210.719354
11
214.277850
21
205.427694
0
LINE
8
top_outsideCutPath
10
214.277850
20
205.427694
11
211.632020
21
205.427694
0
LINE
8
top_outsideCutPath
10
211.632020
20
205.427694
11
211.632020
21
204.104779
0
LINE
8
top_outsideCutPath
10
211.632020
20
204.104779
11
212.954935
21
204.104779
0
LINE
8
top_outsideCutPath
10
212.954935
20
204.104779
11
212.954935
21
201.458949
0
LINE
8
top_outsideCutPath
10
212.954935
20
201.458949
11
214.277850
21
201.458949
0
LINE
8
top_outsideCutPath
10
214.277850
20
201.458949
11
214.277850
21
197.490204
0
LINE
8
top_outsideCutPath
10
214.277850
20
197.490204
11
210.309105
21
197.490204
0
LINE
8
top_outsideCutPath
10
210.309105
20
197.490204
11
210.309105
21
201.458949
0
LINE
8
top_outsideCutPath
10
210.309105
20
201.458949
11
207.663275
21
201.458949
0
LINE
8
top_outsideCutPath
10
207.663275
20
201.458949
11
207.663275
21
197.490204
0
LINE
8
top_outsideCutPath
10
207.663275
20
197.490204
11
203.694530
21
197.490204
0
LINE
8
top_outsideCutPath
10
203.694530
20
197.490204
11
203.694530
21
210.719354
0
LINE
8
top_outsideCutPath
10
9.354425
20
171.035352
11
13.323170
21
171.035352
0
LINE
8
top_outsideCutPath
10
13.323170
20
171.035352
11
13.323170
21
167.066607
0
LINE
8
top_outsideCutPath
10
13.323170
20
167.066607
11
15.969000
21
167.066607
0
LINE
8
top_outsideCutPath
10
15.969000
20
167.066607
11
15.969000
21
171.035352
0
LINE
8
top_outsideCutPath
10
15.969000
20
171.035352
11
19.937745
21
171.035352
0
LINE
8
top_outsideCutPath
10
19.937745
20
171.035352
11
19.937745
21
165.743692
0
LINE
8
top_outsideCutPath
10
19.937745
20
165.743692
11
18.614830
21
165.743692
0
LINE
8
top_outsideCutPath
10
18.614830
20
165.743692
11
18.614830
21
163.097862
0
LINE
8
top_outsideCutPath
10
18.614830
20
163.097862
11
19.937745
21
163.097862
0
LINE
8
top_outsideCutPath
10
19.937745
20
163.097862
11
19.937745
21
157.806202
0
LINE
8
top_outsideCutPath
10
19.937745
20
157.806202
11
15.969000
21
157.806202
0
LINE
8
top_outsideCutPath
10
15.969000
20
157.806202
11
15.969000
21
161.774947
0
LINE
8
top_outsideCutPath
10
15.969000
20
161.774947
11
13.323170
21
161.774947
0
LINE
8
top_outsideCutPath
10
13.323170
20
161.774947
11
13.323170
21
157.806202
0
LINE
8
top_outsideCutPath
10
13.323170
20
157.806202
11
9.354425
21
157.806202
0
LINE
8
top_outsideCutPath
10
9.354425
20
157.806202
11
9.354425
21
163.097862
0
LINE
8
top_outsideCutPath
10
9.354425
20
163.097862
11
10.677340
21
163.097862
0
LINE
8
top_outsideCutPath
10
10.677340
20
163.097862
11
10.677340
21
165.743692
0
LINE
8
top_outsideCutPath
10
10.677340
20
165.743692
11
9.354425
21
165.743692
0
LINE
8
top_outsideCutPath
10
9.354425
20
165.743692
11
9.354425
21
171.035352
0
LINE
8
top_outsideCutPath
10
21.260660
20
171.035352
11
31.843980
21
171.035352
0
LINE
8
top_outsideCutPath
10
31.843980
20
171.035352
11
31.843980
21
160.452032
0
LINE
8
top_outsideCutPath
10
31.843980
20
160.452032
11
25.229405
21
160.452032
0
LINE
8
top_outsideCutPath
10
25.229405
20
160.452032
11
25.229405
21
157.806202
0
LINE
8
top_outsideCutPath
10
25.229405
20
157.806202
11
21.260660
21
157.806202
0
LINE
8
top_outsideCutPath
10
21.260660
20
157.806202
11
21.260660
21
171.035352
0
LINE
8
top_outsideCutPath
10
25.229405
20
167.066607
11
25.229405
21
164.420777
0
LINE
8
top_outsideCutPath
10
25.229405
20
164.420777
11
27.875235
21
164.420777
0
LINE
8
top_outsideCutPath
10
27.875235
20
164.420777
11
27.875235
21
167.066607
0
LINE
8
top_outsideCutPath
10
27.875235
20
167.066607
11
25.229405
21
167.066607
0
LINE
8
top_outsideCutPath
10
33.166895
20
171.035352
11
42.427300
21
171.035352
0
LINE
8
top_outsideCutPath
10
42.427300
20
171.035352
11
42.427300
21
163.097862
0
LINE
8
top_outsideCutPath
10
42.427300
20
163.097862
11
37.135640
21
163.097862
0
LINE
8
top_outsideCutPath
10
37.135640
20
163.097862
11
37.135640
21
161.774947
0
LINE
8
top_outsideCutPath
10
37.135640
20
161.774947
11
42.427300
21
161.774947
0
LINE
8
top_outsideCutPath
10
42.427300
20
161.774947
11
42.427300
21
157.806202
0
LINE
8
top_outsideCutPath
10
42.427300
20
157.806202
11
33.166895
21
157.806202
0
LINE
8
top_outsideCutPath
10
33.166895
20
157.806202
11
33.166895
21
163.097862
0
LINE
8
top_outsideCutPath
10
33.166895
20
163.097862
11
34.489810
21
163.097862
0
LINE
8
top_outsideCutPath
10
34.489810
20
163.097862
11
34.489810
21
165.743692
0
LINE
8
top_outsideCutPath
10
34.489810
20
165.743692
11
38.458555
21
165.743692
0
LINE
8
top_outsideCutPath
10
38.458555
20
165.743692
11
38.458555
21
167.066607
0
LINE
8
top_outsideCutPath
10
38.458555
20
167.066607
11
33.166895
21
167.066607
0
LINE
8
top_outsideCutPath
10
33.166895
20
167.066607
11
33.166895
21
171.035352
0
LINE
8
top_outsideCutPath
10
43.750215
20
171.035352
11
47.718960
21
171.035352
0
LINE
8
top_outsideCutPath
10
47.718960
20
171.035352
11
47.718960
21
165.743692
0
LINE
8
top_outsideCutPath
10
47.718960
20
165.743692
11
49.041875
21
165.743692
0
LINE
8
top_outsideCutPath
10
49.041875
20
165.743692
11
49.041875
21
171.035352
0
LINE
8
top_outsideCutPath
10
49.041875
20
171.035352
11
53.010620
21
171.035352
0
LINE
8
top_outsideCutPath
10
53.010620
20
171.035352
11
53.010620
21
157.806202
0
LINE
8
top_outsideCutPath
10
53.010620
20
157.806202
11
49.041875
21
157.806202
0
LINE
8
top_outsideCutPath
10
49.041875
20
157.806202
11
49.041875
21
161.774947
0
LINE
8
top_outsideCutPath
10
49.041875
20
161.774947
11
43.750215
21
161.774947
0
LINE
8
top_outsideCutPath
10
43.750215
20
161.774947
11
43.750215
21
171.035352
0
LINE
8
Layer 1
10
207.982021
20
51.672938
11
211.950766
21
51.672938
0
LINE
8
Layer 1
10
211.950766
20
51.672938
11
211.950766
21
49.027108
0
LINE
8
Layer 1
10
211.950766
20
49.027108
11
214.596596
21
49.027108
0
LINE
8
Layer 1
10
214.596596
20
49.027108
11
214.596596
21
45.058363
0
LINE
8
Layer 1
10
214.596596
20
45.058363
11
215.919511
21
45.058363
0
LINE
8
Layer 1
10
215.919511
20
45.058363
11
215.919511
21
51.672938
0
LINE
8
Layer 1
10
215.919511
20
51.672938
11
219.888256
21
51.672938
0
LINE
8
Layer 1
10
219.888256
20
51.672938
11
219.888256
21
38.443788
0
LINE
8
Layer 1
10
219.888256
20
38.443788
11
214.596596
21
38.443788
0
LINE
8
Layer 1
10
214.596596
20
38.443788
11
214.596596
21
42.412533
0
LINE
8
Layer 1
10
214.596596
20
42.412533
11
213.273681
21
42.412533
0
LINE
8
Layer 1
10
213.273681
20
42.412533
11
213.273681
21
45.058363
0
LINE
8
Layer 1
10
213.273681
20
45.058363
11
211.950766
21
45.058363
0
LINE
8
Layer 1
10
211.950766
20
45.058363
11
211.950766
21
38.443788
0
LINE
8
Layer 1
10
211.950766
20
38.443788
11
207.982021
21
38.443788
0
LINE
8
Layer 1
10
207.982021
20
38.443788
11
207.982021
21
51.672938
0
LINE
8
Layer 1
10
222.534086
20
51.672938
11
231.794491
21
51.672938
0
LINE
8
Layer 1
10
231.794491
20
51.672938
11
231.794491
21
38.443788
0
LINE
8
Layer 1
10
231.794491
20
38.443788
11
227.825746
21
38.443788
0
LINE
8
Layer 1
10
227.825746
20
38.443788
11
227.825746
21
42.412533
0
LINE
8
Layer 1
10
227.825746
20
42.412533
11
225.179916
21
42.412533
0
LINE
8
Layer 1
10
225.179916
20
42.412533
11
225.179916
21
38.443788
0
LINE
8
Layer 1
10
225.179916
20
38.443788
11
221.211171
21
38.443788
0
LINE
8
Layer 1
10
221.211171
20
38.443788
11
221.211171
21
49.027108
0
LINE
8
Layer 1
10
221.211171
20
49.027108
11
222.534086
21
49.027108
0
LINE
8
Layer 1
10
222.534086
20
49.027108
11
222.534086
21
51.672938
0
LINE
8
Layer 1
10
225.179916
20
47.704193
11
225.179916
21
46.381278
0
LINE
8
Layer 1
10
225.179916
20
46.381278
11
227.825746
21
46.381278
0
LINE
8
Layer 1
10
227.825746
20
46.381278
11
227.825746
21
47.704193
0
LINE
8
Layer 1
10
227.825746
20
47.704193
11
225.179916
21
47.704193
0
LINE
8
Layer 1
10
233.117406
20
51.672938
11
243.700726
21
51.672938
0
LINE
8
Layer 1
10
243.700726
20
51.672938
11
243.700726
21
47.704193
0
LINE
8
Layer 1
10
243.700726
20
47.704193
11
238.409066
21
47.704193
0
LINE
8
Layer 1
10
238.409066
20
47.704193
11
238.409066
21
46.381278
0
LINE
8
Layer 1
10
238.409066
20
46.381278
11
243.700726
21
46.381278
0
LINE
8
Layer 1
10
243.700726
20
46.381278
11
243.700726
21
38.443788
0
LINE
8
Layer 1
10
243.700726
20
38.443788
11
233.117406
21
38.443788
0
LINE
8
Layer 1
10
233.117406
20
38.443788
11
233.117406
21
42.412533
0
LINE
8
Layer 1
10
233.117406
20
42.412533
11
238.409066
21
42.412533
0
LINE
8
Layer 1
10
238.409066
20
42.412533
11
238.409066
21
43.735448
0
LINE
8
Layer 1
10
238.409066
20
43.735448
11
233.117406
21
43.735448
0
LINE
8
Layer 1
10
233.117406
20
43.735448
11
233.117406
21
51.672938
0
LINE
8
Layer 1
10
245.023641
20
51.672938
11
255.606961
21
51.672938
0
LINE
8
Layer 1
10
255.606961
20
51.672938
11
255.606961
21
47.704193
0
LINE
8
Layer 1
10
255.606961
20
47.704193
11
250.315301
21
47.704193
0
LINE
8
Layer 1
10
250.315301
20
47.704193
11
250.315301
21
46.381278
0
LINE
8
Layer 1
10
250.315301
20
46.381278
11
255.606961
21
46.381278
0
LINE
8
Layer 1
10
255.606961
20
46.381278
11
255.606961
21
38.443788
0
LINE
8
Layer 1
10
255.606961
20
38.443788
11
245.023641
21
38.443788
0
LINE
8
Layer 1
10
245.023641
20
38.443788
11
245.023641
21
42.412533
0
LINE
8
Layer 1
10
245.023641
20
42.412533
11
250.315301
21
42.412533
0
LINE
8
Layer 1
10
250.315301
20
42.412533
11
250.315301
21
43.735448
0
LINE
8
Layer 1
10
250.315301
20
43.735448
11
245.023641
21
43.735448
0
LINE
8
Layer 1
10
245.023641
20
43.735448
11
245.023641
21
51.672938
0
LINE
8
Layer 1
10
256.929876
20
51.672938
11
267.513204
21
51.672938
0
LINE
8
Layer 1
10
267.513204
20
51.672938
11
267.513204
21
47.704193
0
LINE
8
Layer 1
10
267.513204
20
47.704193
11
260.898621
21
47.704193
0
LINE
8
Layer 1
10
260.898621
20
47.704193
11
260.898621
21
46.381278
0
LINE
8
Layer 1
10
260.898621
20
46.381278
11
264.867374
21
46.381278
0
LINE
8
Layer 1
10
264.867374
20
46.381278
11
264.867374
21
43.735448
0
LINE
8
Layer 1
10
264.867374
20
43.735448
11
260.898621
21
43.735448
0
LINE
8
Layer 1
10
260.898621
20
43.735448
11
260.898621
21
42.412533
0
LINE
8
Layer 1
10
260.898621
20
42.412533
11
267.513204
21
42.412533
0
LINE
8
Layer 1
10
267.513204
20
42.412533
11
267.513204
21
38.443788
0
LINE
8
Layer 1
10
267.513204
20
38.443788
11
256.929876
21
38.443788
0
LINE
8
Layer 1
10
256.929876
20
38.443788
11
256.929876
21
51.672938
0
LINE
8
Layer 1
10
268.836119
20
51.672938
11
279.419439
21
51.672938
0
LINE
8
Layer 1
10
279.419439
20
51.672938
11
279.419439
21
45.058363
0
LINE
8
Layer 1
10
279.419439
20
45.058363
11
276.773609
21
45.058363
0
LINE
8
Layer 1
10
276.773609
20
45.058363
11
276.773609
21
43.735448
0
LINE
8
Layer 1
10
276.773609
20
43.735448
11
278.096524
21
43.735448
0
LINE
8
Layer 1
10
278.096524
20
43.735448
11
278.096524
21
41.089618
0
LINE
8
Layer 1
10
278.096524
20
41.089618
11
279.419439
21
41.089618
0
LINE
8
Layer 1
10
279.419439
20
41.089618
11
279.419439
21
38.443788
0
LINE
8
Layer 1
10
279.419439
20
38.443788
11
275.450694
21
38.443788
0
LINE
8
Layer 1
10
275.450694
20
38.443788
11
275.450694
21
41.089618
0
LINE
8
Layer 1
10
275.450694
20
41.089618
11
272.804864
21
41.089618
0
LINE
8
Layer 1
10
272.804864
20
41.089618
11
272.804864
21
38.443788
0
LINE
8
Layer 1
10
272.804864
20
38.443788
11
268.836119
21
38.443788
0
LINE
8
Layer 1
10
268.836119
20
38.443788
11
268.836119
21
51.672938
0
LINE
8
Layer 1
10
272.804864
20
47.704193
11
272.804864
21
45.058363
0
LINE
8
Layer 1
10
272.804864
20
45.058363
11
275.450694
21
45.058363
0
LINE
8
Layer 1
10
275.450694
20
45.058363
11
275.450694
21
47.704193
0
LINE
8
Layer 1
10
275.450694
20
47.704193
11
272.804864
21
47.704193
0
LINE
8
Layer 1
10
206.659106
20
25.214627
11
213.273681
21
25.214627
0
LINE
8
Layer 1
10
213.273681
20
25.214627
11
213.273681
21
11.985477
0
LINE
8
Layer 1
10
213.273681
20
11.985477
11
204.013276
21
11.985477
0
LINE
8
Layer 1
10
204.013276
20
11.985477
11
204.013276
21
15.954222
0
LINE
8
Layer 1
10
204.013276
20
15.954222
11
209.304936
21
15.954222
0
LINE
8
Layer 1
10
209.304936
20
15.954222
11
209.304936
21
21.245882
0
LINE
8
Layer 1
10
209.304936
20
21.245882
11
206.659106
21
21.245882
0
LINE
8
Layer 1
10
206.659106
20
21.245882
11
206.659106
21
25.214627
0
LINE
8
Layer 1
10
214.596596
20
25.214627
11
225.179916
21
25.214627
0
LINE
8
Layer 1
10
225.179916
20
25.214627
11
225.179916
21
11.985477
0
LINE
8
Layer 1
10
225.179916
20
11.985477
11
214.596596
21
11.985477
0
LINE
8
Layer 1
10
214.596596
20
11.985477
11
214.596596
21
25.214627
0
LINE
8
Layer 1
10
218.565341
20
21.245882
11
218.565341
21
15.954222
0
LINE
8
Layer 1
10
218.565341
20
15.954222
11
221.211171
21
15.954222
0
LINE
8
Layer 1
10
221.211171
20
15.954222
11
221.211171
21
21.245882
0
LINE
8
Layer 1
10
221.211171
20
21.245882
11
218.565341
21
21.245882
0
LINE
8
Layer 1
10
226.502831
20
25.214627
11
237.086151
21
25.214627
0
LINE
8
Layer 1
10
237.086151
20
25.214627
11
237.086151
21
11.985477
0
LINE
8
Layer 1
10
237.086151
20
11.985477
11
226.502831
21
11.985477
0
LINE
8
Layer 1
10
226.502831
20
11.985477
11
226.502831
21
25.214627
0
LINE
8
Layer 1
10
230.471576
20
21.245882
11
230.471576
21
15.954222
0
LINE
8
Layer 1
10
230.471576
20
15.954222
11
233.117406
21
15.954222
0
LINE
8
Layer 1
10
233.117406
20
15.954222
11
233.117406
21
21.245882
0
LINE
8
Layer 1
10
233.117406
20
21.245882
11
230.471576
21
21.245882
0
LINE
8
Layer 1
10
238.409066
20
25.214627
11
242.377811
21
25.214627
0
LINE
8
Layer 1
10
242.377811
20
25.214627
11
242.377811
21
22.568797
0
LINE
8
Layer 1
10
242.377811
20
22.568797
11
245.023641
21
22.568797
0
LINE
8
Layer 1
10
245.023641
20
22.568797
11
245.023641
21
18.600052
0
LINE
8
Layer 1
10
245.023641
20
18.600052
11
246.346556
21
18.600052
0
LINE
8
Layer 1
10
246.346556
20
18.600052
11
246.346556
21
25.214627
0
LINE
8
Layer 1
10
246.346556
20
25.214627
11
250.315301
21
25.214627
0
LINE
8
Layer 1
10
250.315301
20
25.214627
11
250.315301
21
11.985477
0
LINE
8
Layer 1
10
250.315301
20
11.985477
11
245.023641
21
11.985477
0
LINE
8
Layer 1
10
245.023641
20
11.985477
11
245.023641
21
15.954222
0
LINE
8
Layer 1
10
245.023641
20
15.954222
11
243.700726
21
15.954222
0
LINE
8
Layer 1
10
243.700726
20
15.954222
11
243.700726
21
18.600052
0
LINE
8
Layer 1
10
243.700726
20
18.600052
11
242.377811
21
18.600052
0
LINE
8
Layer 1
10
242.377811
20
18.600052
11
242.377811
21
11.985477
0
LINE
8
Layer 1
10
242.377811
20
11.985477
11
238.409066
21
11.985477
0
LINE
8
Layer 1
10
238.409066
20
11.985477
11
238.409066
21
25.214627
0
LINE
8
Layer 1
10
251.638216
20
18.600052
11
259.575706
21
18.600052
0
LINE
8
Layer 1
10
259.575706
20
18.600052
11
259.575706
21
14.631307
0
LINE
8
Layer 1
10
259.575706
20
14.631307
11
251.638216
21
14.631307
0
LINE
8
Layer 1
10
251.638216
20
14.631307
11
251.638216
21
18.600052
0
LINE
8
Layer 1
10
260.898621
20
25.214627
11
264.867374
21
25.214627
0
LINE
8
Layer 1
10
264.867374
20
25.214627
11
264.867374
21
19.922967
0
LINE
8
Layer 1
10
264.867374
20
19.922967
11
267.513204
21
19.922967
0
LINE
8
Layer 1
10
267.513204
20
19.922967
11
267.513204
21
25.214627
0
LINE
8
Layer 1
10
267.513204
20
25.214627
11
271.481949
21
25.214627
0
LINE
8
Layer 1
10
271.481949
20
25.214627
11
271.481949
21
11.985477
0
LINE
8
Layer 1
10
271.481949
20
11.985477
11
267.513204
21
11.985477
0
LINE
8
Layer 1
10
267.513204
20
11.985477
11
267.513204
21
15.954222
0
LINE
8
Layer 1
10
267.513204
20
15.954222
11
264.867374
21
15.954222
0
LINE
8
Layer 1
10
264.867374
20
15.954222
11
264.867374
21
11.985477
0
LINE
8
Layer 1
10
264.867374
20
11.985477
11
260.898621
21
11.985477
0
LINE
8
Layer 1
10
260.898621
20
11.985477
11
260.898621
21
25.214627
0
LINE
8
Layer 1
10
272.804864
20
25.214627
11
283.388184
21
25.214627
0
LINE
8
Layer 1
10
283.388184
20
25.214627
11
283.388184
21
11.985477
0
LINE
8
Layer 1
10
283.388184
20
11.985477
11
272.804864
21
11.985477
0
LINE
8
Layer 1
10
272.804864
20
11.985477
11
272.804864
21
25.214627
0
LINE
8
Layer 1
10
276.773609
20
21.245882
11
276.773609
21
15.954222
0
LINE
8
Layer 1
10
276.773609
20
15.954222
11
279.419439
21
15.954222
0
LINE
8
Layer 1
10
279.419439
20
15.954222
11
279.419439
21
21.245882
0
LINE
8
Layer 1
10
279.419439
20
21.245882
11
276.773609
21
21.245882
0
LINE
8
back_outsideCutPath
10
0.000000
20
296.000001
11
0.000000
21
277.500021
0
LINE
8
back_outsideCutPath
10
0.000000
20
277.500021
11
3.000001
21
277.500021
0
LINE
8
back_outsideCutPath
10
3.000001
20
277.500021
11
3.000001
21
265.500071
0
LINE
8
back_outsideCutPath
10
3.000001
20
265.500071
11
0.000000
21
265.500071
0
LINE
8
back_outsideCutPath
10
0.000000
20
265.500071
11
0.000000
21
253.500174
0
LINE
8
back_outsideCutPath
10
0.000000
20
253.500174
11
3.000001
21
253.500174
0
LINE
8
back_outsideCutPath
10
3.000001
20
253.500174
11
3.000001
21
241.500012
0
LINE
8
back_outsideCutPath
10
3.000001
20
241.500012
11
0.000000
21
241.500012
0
LINE
8
back_outsideCutPath
10
0.000000
20
241.500012
11
0.000000
21
229.500114
0
LINE
8
back_outsideCutPath
10
0.000000
20
229.500114
11
3.000001
21
229.500114
0
LINE
8
back_outsideCutPath
10
3.000001
20
229.500114
11
3.000001
21
217.500217
0
LINE
8
back_outsideCutPath
10
3.000001
20
217.500217
11
0.000000
21
217.500217
0
LINE
8
back_outsideCutPath
10
0.000000
20
217.500217
11
0.000000
21
205.500055
0
LINE
8
back_outsideCutPath
10
0.000000
20
205.500055
11
3.000001
21
205.500055
0
LINE
8
back_outsideCutPath
10
3.000001
20
205.500055
11
3.000001
21
193.500157
0
LINE
8
back_outsideCutPath
10
3.000001
20
193.500157
11
0.000000
21
193.500157
0
LINE
8
back_outsideCutPath
10
0.000000
20
193.500157
11
0.000000
21
181.500260
0
LINE
8
back_outsideCutPath
10
0.000000
20
181.500260
11
3.000001
21
181.500260
0
LINE
8
back_outsideCutPath
10
3.000001
20
181.500260
11
3.000001
21
169.500098
0
LINE
8
back_outsideCutPath
10
3.000001
20
169.500098
11
0.000000
21
169.500098
0
LINE
8
back_outsideCutPath
10
0.000000
20
169.500098
11
0.000000
21
157.500201
0
LINE
8
back_outsideCutPath
10
0.000000
20
157.500201
11
0.000000
21
151.000190
0
LINE
8
back_outsideCutPath
10
0.000000
20
151.000190
11
20.499970
21
151.000190
0
LINE
8
back_outsideCutPath
10
20.499970
20
151.000190
11
20.499970
21
154.000297
0
LINE
8
back_outsideCutPath
10
20.499970
20
154.000297
11
32.500053
21
154.000297
0
LINE
8
back_outsideCutPath
10
32.500053
20
154.000297
11
32.500053
21
151.000190
0
LINE
8
back_outsideCutPath
10
32.500053
20
151.000190
11
44.499950
21
151.000190
0
LINE
8
back_outsideCutPath
10
44.499950
20
151.000190
11
44.499950
21
154.000297
0
LINE
8
back_outsideCutPath
10
44.499950
20
154.000297
11
56.499848
21
154.000297
0
LINE
8
back_outsideCutPath
10
56.499848
20
154.000297
11
56.499848
21
151.000190
0
LINE
8
back_outsideCutPath
10
56.499848
20
151.000190
11
68.500010
21
151.000190
0
LINE
8
back_outsideCutPath
10
68.500010
20
151.000190
11
68.500010
21
154.000297
0
LINE
8
back_outsideCutPath
10
68.500010
20
154.000297
11
80.499907
21
154.000297
0
LINE
8
back_outsideCutPath
10
80.499907
20
154.000297
11
80.499907
21
151.000190
0
LINE
8
back_outsideCutPath
10
80.499907
20
151.000190
11
92.499804
21
151.000190
0
LINE
8
back_outsideCutPath
10
92.499804
20
151.000190
11
92.499804
21
154.000297
0
LINE
8
back_outsideCutPath
10
92.499804
20
154.000297
11
104.499966
21
154.000297
0
LINE
8
back_outsideCutPath
10
104.499966
20
154.000297
11
104.499966
21
151.000190
0
LINE
8
back_outsideCutPath
10
104.499966
20
151.000190
11
116.499864
21
151.000190
0
LINE
8
back_outsideCutPath
10
116.499864
20
151.000190
11
116.499864
21
154.000297
0
LINE
8
back_outsideCutPath
10
116.499864
20
154.000297
11
128.499761
21
154.000297
0
LINE
8
back_outsideCutPath
10
128.499761
20
154.000297
11
128.499761
21
151.000190
0
LINE
8
back_outsideCutPath
10
128.499761
20
151.000190
11
140.499923
21
151.000190
0
LINE
8
back_outsideCutPath
10
140.499923
20
151.000190
11
140.499923
21
154.000297
0
LINE
8
back_outsideCutPath
10
140.499923
20
154.000297
11
152.499820
21
154.000297
0
LINE
8
back_outsideCutPath
10
152.499820
20
154.000297
11
152.499820
21
151.000190
0
LINE
8
back_outsideCutPath
10
152.499820
20
151.000190
11
164.499718
21
151.000190
0
LINE
8
back_outsideCutPath
10
164.499718
20
151.000190
11
164.499718
21
154.000297
0
LINE
8
back_outsideCutPath
10
164.499718
20
154.000297
11
176.499880
21
154.000297
0
LINE
8
back_outsideCutPath
10
176.499880
20
154.000297
11
176.499880
21
151.000190
0
LINE
8
back_outsideCutPath
10
176.499880
20
151.000190
11
188.499777
21
151.000190
0
LINE
8
back_outsideCutPath
10
188.499777
20
151.000190
11
188.499777
21
154.000297
0
LINE
8
back_outsideCutPath
10
188.499777
20
154.000297
11
200.499674
21
154.000297
0
LINE
8
back_outsideCutPath
10
200.499674
20
154.000297
11
200.499674
21
151.000190
0
LINE
8
back_outsideCutPath
10
200.499674
20
151.000190
11
212.499836
21
151.000190
0
LINE
8
back_outsideCutPath
10
212.499836
20
151.000190
11
212.499836
21
154.000297
0
LINE
8
back_outsideCutPath
10
212.499836
20
154.000297
11
224.499734
21
154.000297
0
LINE
8
back_outsideCutPath
10
224.499734
20
154.000297
11
224.499734
21
151.000190
0
LINE
8
back_outsideCutPath
10
224.499734
20
151.000190
11
236.499631
21
151.000190
0
LINE
8
back_outsideCutPath
10
236.499631
20
151.000190
11
236.499631
21
154.000297
0
LINE
8
back_outsideCutPath
10
236.499631
20
154.000297
11
248.499793
21
154.000297
0
LINE
8
back_outsideCutPath
10
248.499793
20
154.000297
11
248.499793
21
151.000190
0
LINE
8
back_outsideCutPath
10
248.499793
20
151.000190
11
260.499691
21
151.000190
0
LINE
8
back_outsideCutPath
10
260.499691
20
151.000190
11
260.499691
21
154.000297
0
LINE
8
back_outsideCutPath
10
260.499691
20
154.000297
11
272.499323
21
154.000297
0
LINE
8
back_outsideCutPath
10
272.499323
20
154.000297
11
272.499323
21
151.000190
0
LINE
8
back_outsideCutPath
10
272.499323
20
151.000190
11
284.500808
21
151.000190
0
LINE
8
back_outsideCutPath
10
284.500808
20
151.000190
11
292.999214
21
151.000190
0
LINE
8
back_outsideCutPath
10
292.999214
20
151.000190
11
292.999214
21
169.500098
0
LINE
8
back_outsideCutPath
10
292.999214
20
169.500098
11
289.998843
21
169.500098
0
LINE
8
back_outsideCutPath
10
289.998843
20
169.500098
11
289.998843
21
181.500260
0
LINE
8
back_outsideCutPath
10
289.998843
20
181.500260
11
292.999214
21
181.500260
0
LINE
8
back_outsideCutPath
10
292.999214
20
181.500260
11
292.999214
21
193.500157
0
LINE
8
back_outsideCutPath
10
292.999214
20
193.500157
11
289.998843
21
193.500157
0
LINE
8
back_outsideCutPath
10
289.998843
20
193.500157
11
289.998843
21
205.500055
0
LINE
8
back_outsideCutPath
10
289.998843
20
205.500055
11
292.999214
21
205.500055
0
LINE
8
back_outsideCutPath
10
292.999214
20
205.500055
11
292.999214
21
217.500217
0
LINE
8
back_outsideCutPath
10
292.999214
20
217.500217
11
289.998843
21
217.500217
0
LINE
8
back_outsideCutPath
10
289.998843
20
217.500217
11
289.998843
21
229.500114
0
LINE
8
back_outsideCutPath
10
289.998843
20
229.500114
11
292.999214
21
229.500114
0
LINE
8
back_outsideCutPath
10
292.999214
20
229.500114
11
292.999214
21
241.500012
0
LINE
8
back_outsideCutPath
10
292.999214
20
241.500012
11
289.998843
21
241.500012
0
LINE
8
back_outsideCutPath
10
289.998843
20
241.500012
11
289.998843
21
253.500174
0
LINE
8
back_outsideCutPath
10
289.998843
20
253.500174
11
292.999214
21
253.500174
0
LINE
8
back_outsideCutPath
10
292.999214
20
253.500174
11
292.999214
21
265.500071
0
LINE
8
back_outsideCutPath
10
292.999214
20
265.500071
11
289.998843
21
265.500071
0
LINE
8
back_outsideCutPath
10
289.998843
20
265.500071
11
289.998843
21
277.500021
0
LINE
8
back_outsideCutPath
10
289.998843
20
277.500021
11
292.999214
21
277.500021
0
LINE
8
back_outsideCutPath
10
292.999214
20
277.500021
11
292.999214
21
289.499998
0
LINE
8
back_outsideCutPath
10
292.999214
20
289.499998
11
292.999214
21
296.000001
0
LINE
8
back_outsideCutPath
10
292.999214
20
296.000001
11
272.499323
21
296.000001
0
LINE
8
back_outsideCutPath
10
272.499323
20
296.000001
11
272.499323
21
293.000008
0
LINE
8
back_outsideCutPath
10
272.499323
20
293.000008
11
260.499691
21
293.000008
0
LINE
8
back_outsideCutPath
10
260.499691
20
293.000008
11
260.499691
21
296.000001
0
LINE
8
back_outsideCutPath
10
260.499691
20
296.000001
11
248.499793
21
296.000001
0
LINE
8
back_outsideCutPath
10
248.499793
20
296.000001
11
248.499793
21
293.000008
0
LINE
8
back_outsideCutPath
10
248.499793
20
293.000008
11
236.499631
21
293.000008
0
LINE
8
back_outsideCutPath
10
236.499631
20
293.000008
11
236.499631
21
296.000001
0
LINE
8
back_outsideCutPath
10
236.499631
20
296.000001
11
224.499734
21
296.000001
0
LINE
8
back_outsideCutPath
10
224.499734
20
296.000001
11
224.499734
21
293.000008
0
LINE
8
back_outsideCutPath
10
224.499734
20
293.000008
11
212.499836
21
293.000008
0
LINE
8
back_outsideCutPath
10
212.499836
20
293.000008
11
212.499836
21
296.000001
0
LINE
8
back_outsideCutPath
10
212.499836
20
296.000001
11
200.499674
21
296.000001
0
LINE
8
back_outsideCutPath
10
200.499674
20
296.000001
11
200.499674
21
293.000008
0
LINE
8
back_outsideCutPath
10
200.499674
20
293.000008
11
188.499777
21
293.000008
0
LINE
8
back_outsideCutPath
10
188.499777
20
293.000008
11
188.499777
21
296.000001
0
LINE
8
back_outsideCutPath
10
188.499777
20
296.000001
11
176.499880
21
296.000001
0
LINE
8
back_outsideCutPath
10
176.499880
20
296.000001
11
176.499880
21
293.000008
0
LINE
8
back_outsideCutPath
10
176.499880
20
293.000008
11
164.499718
21
293.000008
0
LINE
8
back_outsideCutPath
10
164.499718
20
293.000008
11
164.499718
21
296.000001
0
LINE
8
back_outsideCutPath
10
164.499718
20
296.000001
11
152.499820
21
296.000001
0
LINE
8
back_outsideCutPath
10
152.499820
20
296.000001
11
152.499820
21
293.000008
0
LINE
8
back_outsideCutPath
10
152.499820
20
293.000008
11
140.499923
21
293.000008
0
LINE
8
back_outsideCutPath
10
140.499923
20
293.000008
11
140.499923
21
296.000001
0
LINE
8
back_outsideCutPath
10
140.499923
20
296.000001
11
128.499761
21
296.000001
0
LINE
8
back_outsideCutPath
10
128.499761
20
296.000001
11
128.499761
21
293.000008
0
LINE
8
back_outsideCutPath
10
128.499761
20
293.000008
11
116.499864
21
293.000008
0
LINE
8
back_outsideCutPath
10
116.499864
20
293.000008
11
116.499864
21
296.000001
0
LINE
8
back_outsideCutPath
10
116.499864
20
296.000001
11
104.499966
21
296.000001
0
LINE
8
back_outsideCutPath
10
104.499966
20
296.000001
11
104.499966
21
293.000008
0
LINE
8
back_outsideCutPath
10
104.499966
20
293.000008
11
92.499804
21
293.000008
0
LINE
8
back_outsideCutPath
10
92.499804
20
293.000008
11
92.499804
21
296.000001
0
LINE
8
back_outsideCutPath
10
92.499804
20
296.000001
11
80.499907
21
296.000001
0
LINE
8
back_outsideCutPath
10
80.499907
20
296.000001
11
80.499907
21
293.000008
0
LINE
8
back_outsideCutPath
10
80.499907
20
293.000008
11
68.500010
21
293.000008
0
LINE
8
back_outsideCutPath
10
68.500010
20
293.000008
11
68.500010
21
296.000001
0
LINE
8
back_outsideCutPath
10
68.500010
20
296.000001
11
56.499848
21
296.000001
0
LINE
8
back_outsideCutPath
10
56.499848
20
296.000001
11
56.499848
21
293.000008
0
LINE
8
back_outsideCutPath
10
56.499848
20
293.000008
11
44.499950
21
293.000008
0
LINE
8
back_outsideCutPath
10
44.499950
20
293.000008
11
44.499950
21
296.000001
0
LINE
8
back_outsideCutPath
10
44.499950
20
296.000001
11
32.500053
21
296.000001
0
LINE
8
back_outsideCutPath
10
32.500053
20
296.000001
11
32.500053
21
293.000008
0
LINE
8
back_outsideCutPath
10
32.500053
20
293.000008
11
20.499970
21
293.000008
0
LINE
8
back_outsideCutPath
10
20.499970
20
293.000008
11
20.499970
21
296.000001
0
LINE
8
back_outsideCutPath
10
20.499970
20
296.000001
11
8.499993
21
296.000001
0
LINE
8
back_outsideCutPath
10
8.499993
20
296.000001
11
0.000000
21
296.000001
0
LINE
8
back_outsideCutPath
10
50.000554
20
280.954340
11
49.500554
21
281.088315
0
LINE
8
back_outsideCutPath
10
49.500554
20
281.088315
11
49.134529
21
281.454340
0
LINE
8
back_outsideCutPath
10
49.134529
20
281.454340
11
49.000555
21
281.954340
0
LINE
8
back_outsideCutPath
10
49.000555
20
281.954340
11
49.134529
21
282.454339
0
LINE
8
back_outsideCutPath
10
49.134529
20
282.454339
11
49.500554
21
282.820364
0
LINE
8
back_outsideCutPath
10
49.500554
20
282.820364
11
50.000554
21
282.954339
0
LINE
8
back_outsideCutPath
10
50.000554
20
282.954339
11
50.500554
21
282.820364
0
LINE
8
back_outsideCutPath
10
50.500554
20
282.820364
11
50.866579
21
282.454339
0
LINE
8
back_outsideCutPath
10
50.866579
20
282.454339
11
51.000553
21
281.954340
0
LINE
8
back_outsideCutPath
10
51.000553
20
281.954340
11
50.866579
21
281.454340
0
LINE
8
back_outsideCutPath
10
50.866579
20
281.454340
11
50.500554
21
281.088315
0
LINE
8
back_outsideCutPath
10
50.500554
20
281.088315
11
50.000554
21
280.954340
0
LINE
8
back_outsideCutPath
10
50.000554
20
280.954340
11
50.000554
21
280.954340
0
LINE
8
back_outsideCutPath
10
111.000477
20
280.954340
11
110.500477
21
281.088315
0
LINE
8
back_outsideCutPath
10
110.500477
20
281.088315
11
110.134452
21
281.454340
0
LINE
8
back_outsideCutPath
10
110.134452
20
281.454340
11
110.000477
21
281.954340
0
LINE
8
back_outsideCutPath
10
110.000477
20
281.954340
11
110.134452
21
282.454339
0
LINE
8
back_outsideCutPath
10
110.134452
20
282.454339
11
110.500477
21
282.820364
0
LINE
8
back_outsideCutPath
10
110.500477
20
282.820364
11
111.000477
21
282.954339
0
LINE
8
back_outsideCutPath
10
111.000477
20
282.954339
11
111.500477
21
282.820364
0
LINE
8
back_outsideCutPath
10
111.500477
20
282.820364
11
111.866502
21
282.454339
0
LINE
8
back_outsideCutPath
10
111.866502
20
282.454339
11
112.000476
21
281.954340
0
LINE
8
back_outsideCutPath
10
112.000476
20
281.954340
11
111.866502
21
281.454340
0
LINE
8
back_outsideCutPath
10
111.866502
20
281.454340
11
111.500477
21
281.088315
0
LINE
8
back_outsideCutPath
10
111.500477
20
281.088315
11
111.000477
21
280.954340
0
LINE
8
back_outsideCutPath
10
111.000477
20
280.954340
11
111.000477
21
280.954340
0
LINE
8
back_outsideCutPath
10
27.000140
20
112.807917
11
26.725092
21
114.170274
0
LINE
8
back_outsideCutPath
10
26.725092
20
114.170274
11
25.975014
21
115.282788
0
LINE
8
back_outsideCutPath
10
25.975014
20
115.282788
11
24.862500
21
116.032867
0
LINE
8
back_outsideCutPath
10
24.862500
20
116.032867
11
23.500143
21
116.307914
0
LINE
8
back_outsideCutPath
10
23.500143
20
116.307914
11
22.137786
21
116.032867
0
LINE
8
back_outsideCutPath
10
22.137786
20
116.032867
11
21.025272
21
115.282788
0
LINE
8
back_outsideCutPath
10
21.025272
20
115.282788
11
20.275194
21
114.170274
0
LINE
8
back_outsideCutPath
10
20.275194
20
114.170274
11
20.000146
21
112.807917
0
LINE
8
back_outsideCutPath
10
20.000146
20
112.807917
11
20.275194
21
111.445561
0
LINE
8
back_outsideCutPath
10
20.275194
20
111.445561
11
21.025272
21
110.333046
0
LINE
8
back_outsideCutPath
10
21.025272
20
110.333046
11
22.137786
21
109.582968
0
LINE
8
back_outsideCutPath
10
22.137786
20
109.582968
11
23.500143
21
109.307921
0
LINE
8
back_outsideCutPath
10
23.500143
20
109.307921
11
24.862500
21
109.582968
0
LINE
8
back_outsideCutPath
10
24.862500
20
109.582968
11
25.975014
21
110.333046
0
LINE
8
back_outsideCutPath
10
25.975014
20
110.333046
11
26.725092
21
111.445561
0
LINE
8
back_outsideCutPath
10
26.725092
20
111.445561
11
27.000140
21
112.807917
0
LINE
8
back_outsideCutPath
10
27.000140
20
112.807917
11
27.000140
21
112.807917
0
LINE
8
back_outsideCutPath
10
129.000008
20
112.807917
11
128.878854
21
113.721128
0
LINE
8
back_outsideCutPath
10
128.878854
20
113.721128
11
128.531097
21
114.557916
0
LINE
8
back_outsideCutPath
10
128.531097
20
114.557916
11
127.980297
21
115.277475
0
LINE
8
back_outsideCutPath
10
127.980297
20
115.277475
11
127.250010
21
115.839003
0
LINE
8
back_outsideCutPath
10
127.250010
20
115.839003
11
126.398569
21
116.190686
0
LINE
8
back_outsideCutPath
10
126.398569
20
116.190686
11
125.500012
21
116.307914
0
LINE
8
back_outsideCutPath
10
125.500012
20
116.307914
11
124.601454
21
116.190686
0
LINE
8
back_outsideCutPath
10
124.601454
20
116.190686
11
123.750013
21
115.839003
0
LINE
8
back_outsideCutPath
10
123.750013
20
115.839003
11
123.019727
21
115.277475
0
LINE
8
back_outsideCutPath
10
123.019727
20
115.277475
11
122.468926
21
114.557916
0
LINE
8
back_outsideCutPath
10
122.468926
20
114.557916
11
122.121169
21
113.721128
0
LINE
8
back_outsideCutPath
10
122.121169
20
113.721128
11
122.000015
21
112.807917
0
LINE
8
back_outsideCutPath
10
122.000015
20
112.807917
11
122.121169
21
111.894706
0
LINE
8
back_outsideCutPath
10
122.121169
20
111.894706
11
122.468926
21
111.057919
0
LINE
8
back_outsideCutPath
10
122.468926
20
111.057919
11
123.019727
21
110.338359
0
LINE
8
back_outsideCutPath
10
123.019727
20
110.338359
11
123.750013
21
109.776831
0
LINE
8
back_outsideCutPath
10
123.750013
20
109.776831
11
124.601454
21
109.425148
0
LINE
8
back_outsideCutPath
10
124.601454
20
109.425148
11
125.500012
21
109.307921
0
LINE
8
back_outsideCutPath
10
125.500012
20
109.307921
11
126.398569
21
109.425148
0
LINE
8
back_outsideCutPath
10
126.398569
20
109.425148
11
127.250010
21
109.776831
0
LINE
8
back_outsideCutPath
10
127.250010
20
109.776831
11
127.980297
21
110.338359
0
LINE
8
back_outsideCutPath
10
127.980297
20
110.338359
11
128.531097
21
111.057919
0
LINE
8
back_outsideCutPath
10
128.531097
20
111.057919
11
128.878854
21
111.894706
0
LINE
8
back_outsideCutPath
10
128.878854
20
111.894706
11
129.000008
21
112.807917
0
LINE
8
back_outsideCutPath
10
129.000008
20
112.807917
11
129.000008
21
112.807917
0
LINE
8
back_outsideCutPath
10
40.500117
20
112.807917
11
40.378963
21
113.721128
0
LINE
8
back_outsideCutPath
10
40.378963
20
113.721128
11
40.031206
21
114.557916
0
LINE
8
back_outsideCutPath
10
40.031206
20
114.557916
11
39.480405
21
115.277475
0
LINE
8
back_outsideCutPath
10
39.480405
20
115.277475
11
38.750118
21
115.839003
0
LINE
8
back_outsideCutPath
10
38.750118
20
115.839003
11
37.898678
21
116.190686
0
LINE
8
back_outsideCutPath
10
37.898678
20
116.190686
11
37.000120
21
116.307914
0
LINE
8
back_outsideCutPath
10
37.000120
20
116.307914
11
36.101563
21
116.190686
0
LINE
8
back_outsideCutPath
10
36.101563
20
116.190686
11
35.250122
21
115.839003
0
LINE
8
back_outsideCutPath
10
35.250122
20
115.839003
11
34.519835
21
115.277475
0
LINE
8
back_outsideCutPath
10
34.519835
20
115.277475
11
33.969034
21
114.557916
0
LINE
8
back_outsideCutPath
10
33.969034
20
114.557916
11
33.621278
21
113.721128
0
LINE
8
back_outsideCutPath
10
33.621278
20
113.721128
11
33.500124
21
112.807917
0
LINE
8
back_outsideCutPath
10
33.500124
20
112.807917
11
33.621278
21
111.894706
0
LINE
8
back_outsideCutPath
10
33.621278
20
111.894706
11
33.969034
21
111.057919
0
LINE
8
back_outsideCutPath
10
33.969034
20
111.057919
11
34.519835
21
110.338359
0
LINE
8
back_outsideCutPath
10
34.519835
20
110.338359
11
35.250122
21
109.776831
0
LINE
8
back_outsideCutPath
10
35.250122
20
109.776831
11
36.101563
21
109.425148
0
LINE
8
back_outsideCutPath
10
36.101563
20
109.425148
11
37.000120
21
109.307921
0
LINE
8
back_outsideCutPath
10
37.000120
20
109.307921
11
37.898678
21
109.425148
0
LINE
8
back_outsideCutPath
10
37.898678
20
109.425148
11
38.750118
21
109.776831
0
LINE
8
back_outsideCutPath
10
38.750118
20
109.776831
11
39.480405
21
110.338359
0
LINE
8
back_outsideCutPath
10
39.480405
20
110.338359
11
40.031206
21
111.057919
0
LINE
8
back_outsideCutPath
10
40.031206
20
111.057919
11
40.378963
21
111.894706
0
LINE
8
back_outsideCutPath
10
40.378963
20
111.894706
11
40.500117
21
112.807917
0
LINE
8
back_outsideCutPath
10
40.500117
20
112.807917
11
40.500117
21
112.807917
0
LINE
8
back_outsideCutPath
10
91.500051
20
112.807917
11
91.378897
21
113.721128
0
LINE
8
back_outsideCutPath
10
91.378897
20
113.721128
11
91.031140
21
114.557916
0
LINE
8
back_outsideCutPath
10
91.031140
20
114.557916
11
90.480340
21
115.277475
0
LINE
8
back_outsideCutPath
10
90.480340
20
115.277475
11
89.750053
21
115.839003
0
LINE
8
back_outsideCutPath
10
89.750053
20
115.839003
11
88.898612
21
116.190686
0
LINE
8
back_outsideCutPath
10
88.898612
20
116.190686
11
88.000054
21
116.307914
0
LINE
8
back_outsideCutPath
10
88.000054
20
116.307914
11
87.101497
21
116.190686
0
LINE
8
back_outsideCutPath
10
87.101497
20
116.190686
11
86.250056
21
115.839003
0
LINE
8
back_outsideCutPath
10
86.250056
20
115.839003
11
85.519769
21
115.277475
0
LINE
8
back_outsideCutPath
10
85.519769
20
115.277475
11
84.968969
21
114.557916
0
LINE
8
back_outsideCutPath
10
84.968969
20
114.557916
11
84.621212
21
113.721128
0
LINE
8
back_outsideCutPath
10
84.621212
20
113.721128
11
84.500058
21
112.807917
0
LINE
8
back_outsideCutPath
10
84.500058
20
112.807917
11
84.621212
21
111.894706
0
LINE
8
back_outsideCutPath
10
84.621212
20
111.894706
11
84.968969
21
111.057919
0
LINE
8
back_outsideCutPath
10
84.968969
20
111.057919
11
85.519769
21
110.338359
0
LINE
8
back_outsideCutPath
10
85.519769
20
110.338359
11
86.250056
21
109.776831
0
LINE
8
back_outsideCutPath
10
86.250056
20
109.776831
11
87.101497
21
109.425148
0
LINE
8
back_outsideCutPath
10
87.101497
20
109.425148
11
88.000054
21
109.307921
0
LINE
8
back_outsideCutPath
10
88.000054
20
109.307921
11
88.898612
21
109.425148
0
LINE
8
back_outsideCutPath
10
88.898612
20
109.425148
11
89.750053
21
109.776831
0
LINE
8
back_outsideCutPath
10
89.750053
20
109.776831
11
90.480340
21
110.338359
0
LINE
8
back_outsideCutPath
10
90.480340
20
110.338359
11
91.031140
21
111.057919
0
LINE
8
back_outsideCutPath
10
91.031140
20
111.057919
11
91.378897
21
111.894706
0
LINE
8
back_outsideCutPath
10
91.378897
20
111.894706
11
91.500051
21
112.807917
0
LINE
8
back_outsideCutPath
10
91.500051
20
112.807917
11
91.500051
21
112.807917
0
LINE
8
back_outsideCutPath
10
78.000074
20
112.807917
11
77.878920
21
113.721128
0
LINE
8
back_outsideCutPath
10
77.878920
20
113.721128
11
77.531163
21
114.557916
0
LINE
8
back_outsideCutPath
10
77.531163
20
114.557916
11
76.980362
21
115.277475
0
LINE
8
back_outsideCutPath
10
76.980362
20
115.277475
11
76.250076
21
115.839003
0
LINE
8
back_outsideCutPath
10
76.250076
20
115.839003
11
75.398635
21
116.190686
0
LINE
8
back_outsideCutPath
10
75.398635
20
116.190686
11
74.500077
21
116.307914
0
LINE
8
back_outsideCutPath
10
74.500077
20
116.307914
11
73.601520
21
116.190686
0
LINE
8
back_outsideCutPath
10
73.601520
20
116.190686
11
72.750079
21
115.839003
0
LINE
8
back_outsideCutPath
10
72.750079
20
115.839003
11
72.019792
21
115.277475
0
LINE
8
back_outsideCutPath
10
72.019792
20
115.277475
11
71.468991
21
114.557916
0
LINE
8
back_outsideCutPath
10
71.468991
20
114.557916
11
71.121235
21
113.721128
0
LINE
8
back_outsideCutPath
10
71.121235
20
113.721128
11
71.000081
21
112.807917
0
LINE
8
back_outsideCutPath
10
71.000081
20
112.807917
11
71.121235
21
111.894706
0
LINE
8
back_outsideCutPath
10
71.121235
20
111.894706
11
71.468991
21
111.057919
0
LINE
8
back_outsideCutPath
10
71.468991
20
111.057919
11
72.019792
21
110.338359
0
LINE
8
back_outsideCutPath
10
72.019792
20
110.338359
11
72.750079
21
109.776831
0
LINE
8
back_outsideCutPath
10
72.750079
20
109.776831
11
73.601520
21
109.425148
0
LINE
8
back_outsideCutPath
10
73.601520
20
109.425148
11
74.500077
21
109.307921
0
LINE
8
back_outsideCutPath
10
74.500077
20
109.307921
11
75.398635
21
109.425148
0
LINE
8
back_outsideCutPath
10
75.398635
20
109.425148
11
76.250076
21
109.776831
0
LINE
8
back_outsideCutPath
10
76.250076
20
109.776831
11
76.980362
21
110.338359
0
LINE
8
back_outsideCutPath
10
76.980362
20
110.338359
11
77.531163
21
111.057919
0
LINE
8
back_outsideCutPath
10
77.531163
20
111.057919
11
77.878920
21
111.894706
0
LINE
8
back_outsideCutPath
10
77.878920
20
111.894706
11
78.000074
21
112.807917
0
LINE
8
back_outsideCutPath
10
78.000074
20
112.807917
11
78.000074
21
112.807917
0
LINE
8
back_outsideCutPath
10
142.499985
20
112.807917
11
142.224938
21
114.170274
0
LINE
8
back_outsideCutPath
10
142.224938
20
114.170274
11
141.474860
21
115.282788
0
LINE
8
back_outsideCutPath
10
141.474860
20
115.282788
11
140.362345
21
116.032866
0
LINE
8
back_outsideCutPath
10
140.362345
20
116.032866
11
138.999989
21
116.307913
0
LINE
8
back_outsideCutPath
10
138.999989
20
116.307913
11
137.637632
21
116.032866
0
LINE
8
back_outsideCutPath
10
137.637632
20
116.032866
11
136.525118
21
115.282788
0
LINE
8
back_outsideCutPath
10
136.525118
20
115.282788
11
135.775039
21
114.170274
0
LINE
8
back_outsideCutPath
10
135.775039
20
114.170274
11
135.499992
21
112.807917
0
LINE
8
back_outsideCutPath
10
135.499992
20
112.807917
11
135.775039
21
111.445561
0
LINE
8
back_outsideCutPath
10
135.775039
20
111.445561
11
136.525118
21
110.333046
0
LINE
8
back_outsideCutPath
10
136.525118
20
110.333046
11
137.637632
21
109.582968
0
LINE
8
back_outsideCutPath
10
137.637632
20
109.582968
11
138.999989
21
109.307921
0
LINE
8
back_outsideCutPath
10
138.999989
20
109.307921
11
140.362345
21
109.582968
0
LINE
8
back_outsideCutPath
10
140.362345
20
109.582968
11
141.474860
21
110.333046
0
LINE
8
back_outsideCutPath
10
141.474860
20
110.333046
11
142.224938
21
111.445561
0
LINE
8
back_outsideCutPath
10
142.224938
20
111.445561
11
142.499985
21
112.807917
0
LINE
8
back_outsideCutPath
10
142.499985
20
112.807917
11
142.499985
21
112.807917
0
LINE
8
back_outsideCutPath
10
401.001810
20
90.002694
11
401.001810
21
73.002971
0
LINE
8
back_outsideCutPath
10
401.001810
20
90.002694
11
546.001760
21
90.002694
0
LINE
8
back_outsideCutPath
10
546.001760
20
90.002694
11
546.001760
21
73.002971
0
LINE
8
back_outsideCutPath
10
401.001810
20
73.002971
11
546.001760
21
73.002971
0
LINE
8
back_outsideCutPath
10
681.001532
20
37.003808
11
586.001683
21
37.003808
0
LINE
8
back_outsideCutPath
10
586.001683
20
95.048712
11
586.001683
21
37.003808
0
LINE
8
right_outsideCutPath
10
298.999957
20
296.000001
11
298.999957
21
277.500021
0
LINE
8
right_outsideCutPath
10
298.999957
20
277.500021
11
295.999585
21
277.500021
0
LINE
8
right_outsideCutPath
10
295.999585
20
277.500021
11
295.999585
21
265.500071
0
LINE
8
right_outsideCutPath
10
295.999585
20
265.500071
11
298.999957
21
265.500071
0
LINE
8
right_outsideCutPath
10
298.999957
20
265.500071
11
298.999957
21
253.500174
0
LINE
8
right_outsideCutPath
10
298.999957
20
253.500174
11
295.999585
21
253.500174
0
LINE
8
right_outsideCutPath
10
295.999585
20
253.500174
11
295.999585
21
241.500012
0
LINE
8
right_outsideCutPath
10
295.999585
20
241.500012
11
298.999957
21
241.500012
0
LINE
8
right_outsideCutPath
10
298.999957
20
241.500012
11
298.999957
21
229.500114
0
LINE
8
right_outsideCutPath
10
298.999957
20
229.500114
11
295.999585
21
229.500114
0
LINE
8
right_outsideCutPath
10
295.999585
20
229.500114
11
295.999585
21
217.500217
0
LINE
8
right_outsideCutPath
10
295.999585
20
217.500217
11
298.999957
21
217.500217
0
LINE
8
right_outsideCutPath
10
298.999957
20
217.500217
11
298.999957
21
205.500055
0
LINE
8
right_outsideCutPath
10
298.999957
20
205.500055
11
295.999585
21
205.500055
0
LINE
8
right_outsideCutPath
10
295.999585
20
205.500055
11
295.999585
21
193.500157
0
LINE
8
right_outsideCutPath
10
295.999585
20
193.500157
11
298.999957
21
193.500157
0
LINE
8
right_outsideCutPath
10
298.999957
20
193.500157
11
298.999957
21
181.500260
0
LINE
8
right_outsideCutPath
10
298.999957
20
181.500260
11
295.999585
21
181.500260
0
LINE
8
right_outsideCutPath
10
295.999585
20
181.500260
11
295.999585
21
169.500098
0
LINE
8
right_outsideCutPath
10
295.999585
20
169.500098
11
298.999957
21
169.500098
0
LINE
8
right_outsideCutPath
10
298.999957
20
169.500098
11
298.999957
21
157.500201
0
LINE
8
right_outsideCutPath
10
298.999957
20
157.500201
11
298.999957
21
151.000190
0
LINE
8
right_outsideCutPath
10
298.999957
20
151.000190
11
311.998919
21
151.000190
0
LINE
8
right_outsideCutPath
10
311.998919
20
151.000190
11
311.998919
21
154.000297
0
LINE
8
right_outsideCutPath
10
311.998919
20
154.000297
11
324.000404
21
154.000297
0
LINE
8
right_outsideCutPath
10
324.000404
20
154.000297
11
324.000404
21
151.000190
0
LINE
8
right_outsideCutPath
10
324.000404
20
151.000190
11
335.999243
21
151.000190
0
LINE
8
right_outsideCutPath
10
335.999243
20
151.000190
11
335.999243
21
154.000297
0
LINE
8
right_outsideCutPath
10
335.999243
20
154.000297
11
348.000728
21
154.000297
0
LINE
8
right_outsideCutPath
10
348.000728
20
154.000297
11
348.000728
21
151.000190
0
LINE
8
right_outsideCutPath
10
348.000728
20
151.000190
11
359.999567
21
151.000190
0
LINE
8
right_outsideCutPath
10
359.999567
20
151.000190
11
359.999567
21
154.000297
0
LINE
8
right_outsideCutPath
10
359.999567
20
154.000297
11
371.998406
21
154.000297
0
LINE
8
right_outsideCutPath
10
371.998406
20
154.000297
11
371.998406
21
151.000190
0
LINE
8
right_outsideCutPath
10
371.998406
20
151.000190
11
383.999891
21
151.000190
0
LINE
8
right_outsideCutPath
10
383.999891
20
151.000190
11
385.000015
21
151.000190
0
LINE
8
right_outsideCutPath
10
385.000015
20
151.000190
11
385.000015
21
169.500098
0
LINE
8
right_outsideCutPath
10
385.000015
20
169.500098
11
388.000386
21
169.500098
0
LINE
8
right_outsideCutPath
10
388.000386
20
169.500098
11
388.000386
21
181.500260
0
LINE
8
right_outsideCutPath
10
388.000386
20
181.500260
11
385.000015
21
181.500260
0
LINE
8
right_outsideCutPath
10
385.000015
20
181.500260
11
385.000015
21
193.500157
0
LINE
8
right_outsideCutPath
10
385.000015
20
193.500157
11
388.000386
21
193.500157
0
LINE
8
right_outsideCutPath
10
388.000386
20
193.500157
11
388.000386
21
205.500055
0
LINE
8
right_outsideCutPath
10
388.000386
20
205.500055
11
385.000015
21
205.500055
0
LINE
8
right_outsideCutPath
10
385.000015
20
205.500055
11
385.000015
21
217.500217
0
LINE
8
right_outsideCutPath
10
385.000015
20
217.500217
11
388.000386
21
217.500217
0
LINE
8
right_outsideCutPath
10
388.000386
20
217.500217
11
388.000386
21
229.500114
0
LINE
8
right_outsideCutPath
10
388.000386
20
229.500114
11
385.000015
21
229.500114
0
LINE
8
right_outsideCutPath
10
385.000015
20
229.500114
11
385.000015
21
241.500012
0
LINE
8
right_outsideCutPath
10
385.000015
20
241.500012
11
388.000386
21
241.500012
0
LINE
8
right_outsideCutPath
10
388.000386
20
241.500012
11
388.000386
21
253.500174
0
LINE
8
right_outsideCutPath
10
388.000386
20
253.500174
11
385.000015
21
253.500174
0
LINE
8
right_outsideCutPath
10
385.000015
20
253.500174
11
385.000015
21
265.500071
0
LINE
8
right_outsideCutPath
10
385.000015
20
265.500071
11
388.000386
21
265.500071
0
LINE
8
right_outsideCutPath
10
388.000386
20
265.500071
11
388.000386
21
277.500021
0
LINE
8
right_outsideCutPath
10
388.000386
20
277.500021
11
385.000015
21
277.500021
0
LINE
8
right_outsideCutPath
10
385.000015
20
277.500021
11
385.000015
21
289.499998
0
LINE
8
right_outsideCutPath
10
385.000015
20
289.499998
11
385.000015
21
296.000001
0
LINE
8
right_outsideCutPath
10
385.000015
20
296.000001
11
371.998406
21
296.000001
0
LINE
8
right_outsideCutPath
10
371.998406
20
296.000001
11
371.998406
21
293.000008
0
LINE
8
right_outsideCutPath
10
371.998406
20
293.000008
11
359.999567
21
293.000008
0
LINE
8
right_outsideCutPath
10
359.999567
20
293.000008
11
359.999567
21
296.000001
0
LINE
8
right_outsideCutPath
10
359.999567
20
296.000001
11
348.000728
21
296.000001
0
LINE
8
right_outsideCutPath
10
348.000728
20
296.000001
11
348.000728
21
293.000008
0
LINE
8
right_outsideCutPath
10
348.000728
20
293.000008
11
335.999243
21
293.000008
0
LINE
8
right_outsideCutPath
10
335.999243
20
293.000008
11
335.999243
21
296.000001
0
LINE
8
right_outsideCutPath
10
335.999243
20
296.000001
11
324.000404
21
296.000001
0
LINE
8
right_outsideCutPath
10
324.000404
20
296.000001
11
324.000404
21
293.000008
0
LINE
8
right_outsideCutPath
10
324.000404
20
293.000008
11
311.998919
21
293.000008
0
LINE
8
right_outsideCutPath
10
311.998919
20
293.000008
11
311.998919
21
296.000001
0
LINE
8
right_outsideCutPath
10
311.998919
20
296.000001
11
300.000080
21
296.000001
0
LINE
8
right_outsideCutPath
10
300.000080
20
296.000001
11
298.999957
21
296.000001
0
LINE
8
bottom_outsideCutPath
10
393.998483
20
187.000147
11
393.998483
21
174.000126
0
LINE
8
bottom_outsideCutPath
10
393.998483
20
174.000126
11
391.000757
21
174.000126
0
LINE
8
bottom_outsideCutPath
10
391.000757
20
174.000126
11
391.000757
21
162.000228
0
LINE
8
bottom_outsideCutPath
10
391.000757
20
162.000228
11
393.998483
21
162.000228
0
LINE
8
bottom_outsideCutPath
10
393.998483
20
162.000228
11
393.998483
21
150.000066
0
LINE
8
bottom_outsideCutPath
10
393.998483
20
150.000066
11
391.000757
21
150.000066
0
LINE
8
bottom_outsideCutPath
10
391.000757
20
150.000066
11
391.000757
21
138.000169
0
LINE
8
bottom_outsideCutPath
10
391.000757
20
138.000169
11
393.998483
21
138.000169
0
LINE
8
bottom_outsideCutPath
10
393.998483
20
138.000169
11
393.998483
21
126.000272
0
LINE
8
bottom_outsideCutPath
10
393.998483
20
126.000272
11
391.000757
21
126.000272
0
LINE
8
bottom_outsideCutPath
10
391.000757
20
126.000272
11
391.000757
21
114.000110
0
LINE
8
bottom_outsideCutPath
10
391.000757
20
114.000110
11
393.998483
21
114.000110
0
LINE
8
bottom_outsideCutPath
10
393.998483
20
114.000110
11
393.998483
21
102.000212
0
LINE
8
bottom_outsideCutPath
10
393.998483
20
102.000212
11
393.998483
21
101.000353
0
LINE
8
bottom_outsideCutPath
10
393.998483
20
101.000353
11
411.500648
21
101.000353
0
LINE
8
bottom_outsideCutPath
10
411.500648
20
101.000353
11
411.500648
21
98.000247
0
LINE
8
bottom_outsideCutPath
10
411.500648
20
98.000247
11
423.499487
21
98.000247
0
LINE
8
bottom_outsideCutPath
10
423.499487
20
98.000247
11
423.499487
21
101.000353
0
LINE
8
bottom_outsideCutPath
10
423.499487
20
101.000353
11
435.498326
21
101.000353
0
LINE
8
bottom_outsideCutPath
10
435.498326
20
101.000353
11
435.498326
21
98.000247
0
LINE
8
bottom_outsideCutPath
10
435.498326
20
98.000247
11
447.499811
21
98.000247
0
LINE
8
bottom_outsideCutPath
10
447.499811
20
98.000247
11
447.499811
21
101.000353
0
LINE
8
bottom_outsideCutPath
10
447.499811
20
101.000353
11
459.498650
21
101.000353
0
LINE
8
bottom_outsideCutPath
10
459.498650
20
101.000353
11
459.498650
21
98.000247
0
LINE
8
bottom_outsideCutPath
10
459.498650
20
98.000247
11
471.500135
21
98.000247
0
LINE
8
bottom_outsideCutPath
10
471.500135
20
98.000247
11
471.500135
21
101.000353
0
LINE
8
bottom_outsideCutPath
10
471.500135
20
101.000353
11
483.498974
21
101.000353
0
LINE
8
bottom_outsideCutPath
10
483.498974
20
101.000353
11
483.498974
21
98.000247
0
LINE
8
bottom_outsideCutPath
10
483.498974
20
98.000247
11
495.500459
21
98.000247
0
LINE
8
bottom_outsideCutPath
10
495.500459
20
98.000247
11
495.500459
21
101.000353
0
LINE
8
bottom_outsideCutPath
10
495.500459
20
101.000353
11
507.499298
21
101.000353
0
LINE
8
bottom_outsideCutPath
10
507.499298
20
101.000353
11
507.499298
21
98.000247
0
LINE
8
bottom_outsideCutPath
10
507.499298
20
98.000247
11
519.498137
21
98.000247
0
LINE
8
bottom_outsideCutPath
10
519.498137
20
98.000247
11
519.498137
21
101.000353
0
LINE
8
bottom_outsideCutPath
10
519.498137
20
101.000353
11
531.499622
21
101.000353
0
LINE
8
bottom_outsideCutPath
10
531.499622
20
101.000353
11
531.499622
21
98.000247
0
LINE
8
bottom_outsideCutPath
10
531.499622
20
98.000247
11
543.498461
21
98.000247
0
LINE
8
bottom_outsideCutPath
10
543.498461
20
98.000247
11
543.498461
21
101.000353
0
LINE
8
bottom_outsideCutPath
10
543.498461
20
101.000353
11
555.499946
21
101.000353
0
LINE
8
bottom_outsideCutPath
10
555.499946
20
101.000353
11
555.499946
21
98.000247
0
LINE
8
bottom_outsideCutPath
10
555.499946
20
98.000247
11
567.498785
21
98.000247
0
LINE
8
bottom_outsideCutPath
10
567.498785
20
98.000247
11
567.498785
21
101.000353
0
LINE
8
bottom_outsideCutPath
10
567.498785
20
101.000353
11
579.500270
21
101.000353
0
LINE
8
bottom_outsideCutPath
10
579.500270
20
101.000353
11
579.500270
21
98.000247
0
LINE
8
bottom_outsideCutPath
10
579.500270
20
98.000247
11
591.499109
21
98.000247
0
LINE
8
bottom_outsideCutPath
10
591.499109
20
98.000247
11
591.499109
21
101.000353
0
LINE
8
bottom_outsideCutPath
10
591.499109
20
101.000353
11
603.497948
21
101.000353
0
LINE
8
bottom_outsideCutPath
10
603.497948
20
101.000353
11
603.497948
21
98.000247
0
LINE
8
bottom_outsideCutPath
10
603.497948
20
98.000247
11
615.499433
21
98.000247
0
LINE
8
bottom_outsideCutPath
10
615.499433
20
98.000247
11
615.499433
21
101.000353
0
LINE
8
bottom_outsideCutPath
10
615.499433
20
101.000353
11
627.498272
21
101.000353
0
LINE
8
bottom_outsideCutPath
10
627.498272
20
101.000353
11
627.498272
21
98.000247
0
LINE
8
bottom_outsideCutPath
10
627.498272
20
98.000247
11
639.499757
21
98.000247
0
LINE
8
bottom_outsideCutPath
10
639.499757
20
98.000247
11
639.499757
21
101.000353
0
LINE
8
bottom_outsideCutPath
10
639.499757
20
101.000353
11
651.498596
21
101.000353
0
LINE
8
bottom_outsideCutPath
10
651.498596
20
101.000353
11
651.498596
21
98.000247
0
LINE
8
bottom_outsideCutPath
10
651.498596
20
98.000247
11
663.500081
21
98.000247
0
LINE
8
bottom_outsideCutPath
10
663.500081
20
98.000247
11
663.500081
21
101.000353
0
LINE
8
bottom_outsideCutPath
10
663.500081
20
101.000353
11
675.498920
21
101.000353
0
LINE
8
bottom_outsideCutPath
10
675.498920
20
101.000353
11
680.999600
21
101.000353
0
LINE
8
bottom_outsideCutPath
10
680.999600
20
101.000353
11
680.999600
21
114.000110
0
LINE
8
bottom_outsideCutPath
10
680.999600
20
114.000110
11
683.999972
21
114.000110
0
LINE
8
bottom_outsideCutPath
10
683.999972
20
114.000110
11
683.999972
21
126.000272
0
LINE
8
bottom_outsideCutPath
10
683.999972
20
126.000272
11
680.999600
21
126.000272
0
LINE
8
bottom_outsideCutPath
10
680.999600
20
126.000272
11
680.999600
21
138.000169
0
LINE
8
bottom_outsideCutPath
10
680.999600
20
138.000169
11
683.999972
21
138.000169
0
LINE
8
bottom_outsideCutPath
10
683.999972
20
138.000169
11
683.999972
21
150.000066
0
LINE
8
bottom_outsideCutPath
10
683.999972
20
150.000066
11
680.999600
21
150.000066
0
LINE
8
bottom_outsideCutPath
10
680.999600
20
150.000066
11
680.999600
21
162.000228
0
LINE
8
bottom_outsideCutPath
10
680.999600
20
162.000228
11
683.999972
21
162.000228
0
LINE
8
bottom_outsideCutPath
10
683.999972
20
162.000228
11
683.999972
21
174.000126
0
LINE
8
bottom_outsideCutPath
10
683.999972
20
174.000126
11
680.999600
21
174.000126
0
LINE
8
bottom_outsideCutPath
10
680.999600
20
174.000126
11
680.999600
21
186.000023
0
LINE
8
bottom_outsideCutPath
10
680.999600
20
186.000023
11
680.999600
21
187.000147
0
LINE
8
bottom_outsideCutPath
10
680.999600
20
187.000147
11
663.500081
21
187.000147
0
LINE
8
bottom_outsideCutPath
10
663.500081
20
187.000147
11
663.500081
21
190.000254
0
LINE
8
bottom_outsideCutPath
10
663.500081
20
190.000254
11
651.498596
21
190.000254
0
LINE
8
bottom_outsideCutPath
10
651.498596
20
190.000254
11
651.498596
21
187.000147
0
LINE
8
bottom_outsideCutPath
10
651.498596
20
187.000147
11
639.499757
21
187.000147
0
LINE
8
bottom_outsideCutPath
10
639.499757
20
187.000147
11
639.499757
21
190.000254
0
LINE
8
bottom_outsideCutPath
10
639.499757
20
190.000254
11
627.498272
21
190.000254
0
LINE
8
bottom_outsideCutPath
10
627.498272
20
190.000254
11
627.498272
21
187.000147
0
LINE
8
bottom_outsideCutPath
10
627.498272
20
187.000147
11
615.499433
21
187.000147
0
LINE
8
bottom_outsideCutPath
10
615.499433
20
187.000147
11
615.499433
21
190.000254
0
LINE
8
bottom_outsideCutPath
10
615.499433
20
190.000254
11
603.497948
21
190.000254
0
LINE
8
bottom_outsideCutPath
10
603.497948
20
190.000254
11
603.497948
21
187.000147
0
LINE
8
bottom_outsideCutPath
10
603.497948
20
187.000147
11
591.499109
21
187.000147
0
LINE
8
bottom_outsideCutPath
10
591.499109
20
187.000147
11
591.499109
21
190.000254
0
LINE
8
bottom_outsideCutPath
10
591.499109
20
190.000254
11
579.500270
21
190.000254
0
LINE
8
bottom_outsideCutPath
10
579.500270
20
190.000254
11
579.500270
21
187.000147
0
LINE
8
bottom_outsideCutPath
10
579.500270
20
187.000147
11
567.498785
21
187.000147
0
LINE
8
bottom_outsideCutPath
10
567.498785
20
187.000147
11
567.498785
21
190.000254
0
LINE
8
bottom_outsideCutPath
10
567.498785
20
190.000254
11
555.499946
21
190.000254
0
LINE
8
bottom_outsideCutPath
10
555.499946
20
190.000254
11
555.499946
21
187.000147
0
LINE
8
bottom_outsideCutPath
10
555.499946
20
187.000147
11
543.498461
21
187.000147
0
LINE
8
bottom_outsideCutPath
10
543.498461
20
187.000147
11
543.498461
21
190.000254
0
LINE
8
bottom_outsideCutPath
10
543.498461
20
190.000254
11
531.499622
21
190.000254
0
LINE
8
bottom_outsideCutPath
10
531.499622
20
190.000254
11
531.499622
21
187.000147
0
LINE
8
bottom_outsideCutPath
10
531.499622
20
187.000147
11
519.498137
21
187.000147
0
LINE
8
bottom_outsideCutPath
10
519.498137
20
187.000147
11
519.498137
21
190.000254
0
LINE
8
bottom_outsideCutPath
10
519.498137
20
190.000254
11
507.499298
21
190.000254
0
LINE
8
bottom_outsideCutPath
10
507.499298
20
190.000254
11
507.499298
21
187.000147
0
LINE
8
bottom_outsideCutPath
10
507.499298
20
187.000147
11
495.500459
21
187.000147
0
LINE
8
bottom_outsideCutPath
10
495.500459
20
187.000147
11
495.500459
21
190.000254
0
LINE
8
bottom_outsideCutPath
10
495.500459
20
190.000254
11
483.498974
21
190.000254
0
LINE
8
bottom_outsideCutPath
10
483.498974
20
190.000254
11
483.498974
21
187.000147
0
LINE
8
bottom_outsideCutPath
10
483.498974
20
187.000147
11
471.500135
21
187.000147
0
LINE
8
bottom_outsideCutPath
10
471.500135
20
187.000147
11
471.500135
21
190.000254
0
LINE
8
bottom_outsideCutPath
10
471.500135
20
190.000254
11
459.498650
21
190.000254
0
LINE
8
bottom_outsideCutPath
10
459.498650
20
190.000254
11
459.498650
21
187.000147
0
LINE
8
bottom_outsideCutPath
10
459.498650
20
187.000147
11
447.499811
21
187.000147
0
LINE
8
bottom_outsideCutPath
10
447.499811
20
187.000147
11
447.499811
21
190.000254
0
LINE
8
bottom_outsideCutPath
10
447.499811
20
190.000254
11
435.498326
21
190.000254
0
LINE
8
bottom_outsideCutPath
10
435.498326
20
190.000254
11
435.498326
21
187.000147
0
LINE
8
bottom_outsideCutPath
10
435.498326
20
187.000147
11
423.499487
21
187.000147
0
LINE
8
bottom_outsideCutPath
10
423.499487
20
187.000147
11
423.499487
21
190.000254
0
LINE
8
bottom_outsideCutPath
10
423.499487
20
190.000254
11
411.500648
21
190.000254
0
LINE
8
bottom_outsideCutPath
10
411.500648
20
190.000254
11
411.500648
21
187.000147
0
LINE
8
bottom_outsideCutPath
10
411.500648
20
187.000147
11
399.499163
21
187.000147
0
LINE
8
bottom_outsideCutPath
10
399.499163
20
187.000147
11
393.998483
21
187.000147
 0 
ENDSEC
 0 
EOF